  0
SECTION
  2
HEADER
  9
$ACADVER
  1
AC1009
  9
$INSBASE
 10
0
 20
0
 30
0
  9
$EXTMIN
 10
0
 20
0
  9
$EXTMAX
 10
1260
 20
891
  9
$LIMMIN
 10
0
 20
0
  9
$LIMMAX
 10
1260
 20
891
  9
$LTSCALE
 40
3
  0
ENDSEC
  0
SECTION
  2
TABLES
  0
TABLE
  2
LTYPE
 70
     9
  0
LTYPE
  2
CONTINUOUS
 70
    64
  3
実線
 72
    65
 73
     0
 40
0.0
  0
LTYPE
  2
DASHED1
 70
    64
  3
--  --  --  --  --  --  --  --  
 72
    65
 73
     2
 40
2.5
 49
1.25
 49
-1.25
  0
LTYPE
  2
DASHED2
 70
    64
  3
----    ----    ----    ----    
 72
    65
 73
     2
 40
5.0
 49
2.5
 49
-2.5
  0
LTYPE
  2
DASHED3
 70
    64
  3
------  ------  ------  ------  
 72
    65
 73
     2
 40
5.0
 49
3.75
 49
-1.25
  0
LTYPE
  2
CENTER1
 70
    64
  3
----- - ----- - ----- - ----- - 
 72
    65
 73
     4
 40
10.0
 49
6.25
 49
-1.25
 49
1.25
 49
-1.25
  0
LTYPE
  2
CENTER2
 70
    64
  3
----------  --  ----------  --  
 72
    65
 73
     4
 40
20.0
 49
12.5
 49
-2.5
 49
2.5
 49
-2.5
  0
LTYPE
  2
PHANTOM1
 70
    64
  3
--- - - --- - - --- - - --- - - 
 72
    65
 73
     6
 40
10.0
 49
3.25
 49
-1.25
 49
1.25
 49
-1.25
 49
1.25
 49
-1.25
  0
LTYPE
  2
PHANTOM2
 70
    64
  3
--------  -  -  --------  -  -  
 72
    65
 73
     6
 40
20.0
 49
10.0
 49
-2.5
 49
1.25
 49
-2.5
 49
1.25
 49
-2.5
  0
LTYPE
  2
DOT
 70
    64
  3
-   -   -   -   -   -   -   -   
 72
    65
 73
     2
 40
2.5
 49
0.625
 49
-1.875
  0
LTYPE
  2
DUMMY
 70
    64
  3
ダミー
 72
    65
 73
     0
 40
0.0
  0
LTYPE
  2
RAND1
 70
    64
  3
ランダム線1
 72
    65
 73
     4
 40
10.0
 49
1.0
 49
-2.0
 49
3.0
 49
-4.0
  0
LTYPE
  2
RAND2
 70
    64
  3
ランダム線2
 72
    65
 73
     4
 40
14.0
 49
2.0
 49
-3.0
 49
4.0
 49
-5.0
  0
LTYPE
  2
RAND3
 70
    64
  3
ランダム線3
 72
    65
 73
     4
 40
18.0
 49
3.0
 49
-4.0
 49
5.0
 49
-6.0
  0
LTYPE
  2
RAND4
 70
    64
  3
ランダム線4
 72
    65
 73
     4
 40
22.0
 49
4.0
 49
-5.0
 49
6.0
 49
-7.0
  0
LTYPE
  2
RAND5
 70
    64
  3
ランダム線5
 72
    65
 73
     4
 40
26.0
 49
5.0
 49
-6.0
 49
7.0
 49
-8.0
  0
LTYPE
  2
LONG1
 70
    64
  3
----------  --  ----------  --  
 72
    65
 73
     4
 40
40.0
 49
32.5
 49
-2.5
 49
2.5
 49
-2.5
  0
LTYPE
  2
LONG2
 70
    64
  3
--------  -  -  --------  -  -  
 72
    65
 73
     6
 40
40.0
 49
30.0
 49
-2.5
 49
1.25
 49
-2.5
 49
1.25
 49
-2.5
  0
LTYPE
  2
LONG3
 70
    64
  3
+++++++++++++++..+++++++++++++++
 72
    65
 73
     2
 40
40.0
 49
37.5
 49
-2.5
  0
LTYPE
  2
LONG4
 70
    64
  3
+++++++++++++++..+++++++++++++++
 72
    65
 73
     2
 40
80.0
 49
75.0
 49
-5.0
  0
LTYPE
  2
LONG5
 70
    64
  3
----------  --  ----------  --  
 72
    65
 73
     4
 40
60.0
 49
37.5
 49
-7.5
 49
7.5
 49
-7.5
  0
LTYPE
  2
dashed
 70
   64
  3
-------   -------------   ------
 72
   65
 73
    2
 40
7.5
 49
6
 49
-1.5
  0
LTYPE
  2
dashed_spaced
 70
   64
  3
----        --------        ----
 72
   65
 73
    2
 40
12
 49
6
 49
-6
  0
LTYPE
  2
long_dashed_dotted
 70
   64
  3
------------- --- --------------
 72
   65
 73
    4
 40
15.25
 49
12
 49
-1.5
 49
0.25
 49
-1.5
  0
LTYPE
  2
long_dashed_double-dotted
 70
   64
  3
----------- --- --- ------------
 72
   65
 73
    6
 40
17
 49
12
 49
-1.5
 49
0.25
 49
-1.5
 49
0.25
 49
-1.5
  0
LTYPE
  2
long_dashed_triplicate-dotted
 70
   64
  3
--------- --- --- --- ----------
 72
   65
 73
    8
 40
18.75
 49
12
 49
-1.5
 49
0.25
 49
-1.5
 49
0.25
 49
-1.5
 49
0.25
 49
-1.5
  0
LTYPE
  2
dotted
 70
   64
  3
   -       -       -       -    
 72
   65
 73
    2
 40
1.75
 49
0.25
 49
-1.5
  0
LTYPE
  2
chain
 70
   64
  3
-------------- -- --------------
 72
   65
 73
    4
 40
18.5
 49
12
 49
-1.5
 49
3.5
 49
-1.5
  0
LTYPE
  2
chain_double_dash
 70
   64
  3
------------ -- -- -------------
 72
   65
 73
    6
 40
23.5
 49
12
 49
-1.5
 49
3.5
 49
-1.5
 49
3.5
 49
-1.5
  0
LTYPE
  2
dashed_dotted
 70
   64
  3
-----------     -     ----------
 72
   65
 73
    4
 40
9.25
 49
6
 49
-1.5
 49
0.25
 49
-1.5
  0
LTYPE
  2
double-dashed_dotted
 70
   64
  3
------   -----------   -   -----
 72
   65
 73
    6
 40
16.75
 49
6
 49
-1.5
 49
6
 49
-1.5
 49
0.25
 49
-1.5
  0
LTYPE
  2
dashed_double-dotted
 70
   64
  3
---------    -    -    ---------
 72
   65
 73
    6
 40
11
 49
6
 49
-1.5
 49
0.25
 49
-1.5
 49
0.25
 49
-1.5
  0
LTYPE
  2
double-dashed_double-dotted
 70
   64
  3
-----   ---------   -   -   ----
 72
   65
 73
    8
 40
18.5
 49
6
 49
-1.5
 49
6
 49
-1.5
 49
0.25
 49
-1.5
 49
0.25
 49
-1.5
  0
LTYPE
  2
dashed_triplicate-dotted
 70
   64
  3
-------    -    -    -    ------
 72
   65
 73
    8
 40
12.75
 49
6
 49
-1.5
 49
0.25
 49
-1.5
 49
0.25
 49
-1.5
 49
0.25
 49
-1.5
  0
LTYPE
  2
double-dashed_triplicate-dotted
 70
   64
  3
-----  ---------  -  -  -  -----
 72
   65
 73
   10
 40
20.25
 49
6
 49
-1.5
 49
6
 49
-1.5
 49
0.25
 49
-1.5
 49
0.25
 49
-1.5
 49
0.25
 49
-1.5
  0
LTYPE
  2
undefined
 70
   64
  3
--------------------------------
 72
   65
 73
    0
 40
0
  0
LTYPE
  2
dashed_17
 70
   64
  3
-------   -------------   ------
 72
   65
 73
    2
 40
1.875
 49
1.5
 49
-0.375
  0
LTYPE
  2
dashed_spaced_18
 70
   64
  3
----        --------        ----
 72
   65
 73
    2
 40
3
 49
1.5
 49
-1.5
  0
LTYPE
  2
long_dashed_dotted_19
 70
   64
  3
-------------   -   ------------
 72
   65
 73
    4
 40
3.8125
 49
3
 49
-0.375
 49
0.0625
 49
-0.375
  0
LTYPE
  2
long_dashed_double-dotted_20
 70
   64
  3
-----------   -   -   ----------
 72
   65
 73
    6
 40
4.25
 49
3
 49
-0.375
 49
0.0625
 49
-0.375
 49
0.0625
 49
-0.375
  0
LTYPE
  2
long_dashed_triplicate-dotted_21
 70
   64
  3
---------   -   -   -   --------
 72
   65
 73
    8
 40
4.6875
 49
3
 49
-0.375
 49
0.0625
 49
-0.375
 49
0.0625
 49
-0.375
 49
0.0625
 49
-0.375
  0
LTYPE
  2
dotted_22
 70
   64
  3
-              --              -
 72
   65
 73
    2
 40
0.4375
 49
0.0625
 49
-0.375
  0
LTYPE
  2
chain_23
 70
   64
  3
----------   ------   ----------
 72
   65
 73
    4
 40
4.625
 49
3
 49
-0.375
 49
0.875
 49
-0.375
  0
LTYPE
  2
chain_double_dash_24
 70
   64
  3
--------  -----  -----  --------
 72
   65
 73
    6
 40
5.875
 49
3
 49
-0.375
 49
0.875
 49
-0.375
 49
0.875
 49
-0.375
  0
LTYPE
  2
dashed_dotted_25
 70
   64
  3
-----------     -     ----------
 72
   65
 73
    4
 40
2.3125
 49
1.5
 49
-0.375
 49
0.0625
 49
-0.375
  0
LTYPE
  2
double-dashed_dotted_26
 70
   64
  3
------   -----------   -   -----
 72
   65
 73
    6
 40
4.1875
 49
1.5
 49
-0.375
 49
1.5
 49
-0.375
 49
0.0625
 49
-0.375
  0
LTYPE
  2
dashed_double-dotted_27
 70
   64
  3
---------    -    -    ---------
 72
   65
 73
    6
 40
2.75
 49
1.5
 49
-0.375
 49
0.0625
 49
-0.375
 49
0.0625
 49
-0.375
  0
LTYPE
  2
double-dashed_double-dotted_28
 70
   64
  3
-----   ---------   -   -   ----
 72
   65
 73
    8
 40
4.625
 49
1.5
 49
-0.375
 49
1.5
 49
-0.375
 49
0.0625
 49
-0.375
 49
0.0625
 49
-0.375
  0
LTYPE
  2
dashed_triplicate-dotted_29
 70
   64
  3
-------    -    -    -    ------
 72
   65
 73
    8
 40
3.1875
 49
1.5
 49
-0.375
 49
0.0625
 49
-0.375
 49
0.0625
 49
-0.375
 49
0.0625
 49
-0.375
  0
LTYPE
  2
_
 70
   64
  3
                                
 72
   65
 73
    0
 40
0
  0
LTYPE
  2
__31
 70
   64
  3
                                
 72
   65
 73
    0
 40
0
  0
LTYPE
  2
__32
 70
   64
  3
                                
 72
   65
 73
    0
 40
0
  0
ENDTAB
  0
TABLE
  2
STYLE
  5
3
100
AcDbSymbolTable
 70
     1
  0
STYLE
  5
10
100
AcDbSymbolTableRecord
100
AcDbTextStyleTableRecord
  2
STANDARD
 70
     0
 40
0.0
 41
1.0
 50
0.0
 71
     0
 42
0.2
  3
txt
  4
bigfont.shx
  0
STYLE
  5
26
100
AcDbSymbolTableRecord
100
AcDbTextStyleTableRecord
  2
TATEGAKI
 70
    68
 40
0.0
 41
1.0
 50
0.0
 71
     0
 42
1.0
  3
txt
  4
bigfont.shx
  0
ENDTAB
  0
TABLE
  2
LAYER
 70
    6
  0
LAYER
  2
_0-0_0
 70
   64
 62
    7
  6
CONTINUOUS
  0
LAYER
  2
_0-1_0_04____
 70
   64
 62
    7
  6
CONTINUOUS
  0
LAYER
  2
_0-3_0_10___F
 70
   64
 62
    7
  6
CONTINUOUS
  0
LAYER
  2
_0-5_0_20__
 70
   64
 62
    7
  6
CONTINUOUS
  0
LAYER
  2
_0-6_0_24__
 70
   64
 62
    7
  6
CONTINUOUS
  0
LAYER
  2
ADD_LINE
 70
   64
 62
    7
  6
CONTINUOUS
  0
ENDTAB
  0
ENDSEC
  0
SECTION
  2
BLOCKS
  0
BLOCK
  2
-000-ELLIPSE0
 70
   64
 10
0
 20
0
 30
0
  0
ARC
  8
_0-0_0
  6
CONTINUOUS
 62
    3
 10
0
 20
0
 40
1.0753764294610049
 50
0
 51
45.000000000002501
  0
ENDBLK
  0
BLOCK
  2
-001-BV_ATTRIBUTE1
 70
   64
 10
0
 20
0
 30
0
  0
LINE
  8
_0-0_0
  6
CONTINUOUS
 62
    7
 10
0
 20
0
 11
-3.2574941471847865
 21
10.858320275149254
  0
LINE
  8
_0-0_0
  6
CONTINUOUS
 62
    7
 10
48.178679027956662
 20
13.409504848516008
 11
44.633820728090825
 21
25.225706201703133
  0
CIRCLE
  8
_0-0_0
  6
CONTINUOUS
 62
    7
 10
-1.8207555024750377
 20
6.0691886141069062
 40
1.5
  0
CIRCLE
  8
_0-0_0
  6
CONTINUOUS
 62
    7
 10
46.070559372800574
 20
20.436574540660899
 40
1.5
  0
LINE
  8
_0-0_0
  6
CONTINUOUS
 62
    7
 10
-1.8207555024750377
 20
6.0691886141069062
 11
46.070559372800574
 21
20.436574540660899
  0
TEXT
  8
_0-0_0
 62
    7
 10
3.9262024768050878
 20
13.013427981941959
 40
6
 41
1
 50
16.699234864949894
  1
50～150
  0
ENDBLK
  0
BLOCK
  2
-002-BV_ATTRIBUTE2
 70
   64
 10
0
 20
0
 30
0
  0
LINE
  8
_0-0_0
  6
CONTINUOUS
 62
    7
 10
0
 20
0
 11
3.0781812899310808
 21
8.4572335870731195
  0
LINE
  8
_0-0_0
  6
CONTINUOUS
 62
    7
 10
0
 20
0
 11
5.7850884871787684
 21
6.8943999880707452
  0
LINE
  8
_0-0_0
  6
CONTINUOUS
 62
    7
 10
0
 20
0
 11
24.136706229745755
 21
41.806001517283676
  0
LINE
  8
_0-0_0
  6
CONTINUOUS
 62
    7
 10
24.136706229745755
 20
41.806001517283676
 11
67.158462705603029
 21
41.806001517283676
  0
TEXT
  8
_0-0_0
 62
    7
 10
32.158462705603029
 20
46.806001517283676
 40
6
 41
1
 50
0
  1
丸面戸
  0
ENDBLK
  0
BLOCK
  2
-003-BV_ATTRIBUTE3
 70
   64
 10
0
 20
0
 30
0
  0
LINE
  8
_0-0_0
  6
CONTINUOUS
 62
    7
 10
0
 20
0
 11
3.0781812899310808
 21
8.4572335870731195
  0
LINE
  8
_0-0_0
  6
CONTINUOUS
 62
    7
 10
0
 20
0
 11
5.7850884871788821
 21
6.8943999880707452
  0
LINE
  8
_0-0_0
  6
CONTINUOUS
 62
    7
 10
0
 20
0
 11
22.318277096790098
 21
38.65638986904105
  0
LINE
  8
_0-0_0
  6
CONTINUOUS
 62
    7
 10
22.318277096790098
 20
38.65638986904105
 11
54.605656104367654
 21
38.65638986904105
  0
TEXT
  8
_0-0_0
 62
    7
 10
29.605656104367654
 20
43.65638986904105
 40
6
 41
1
 50
0
  1
棟板
  0
ENDBLK
  0
BLOCK
  2
-004-BV_ATTRIBUTE4
 70
   64
 10
0
 20
0
 30
0
  0
LINE
  8
_0-0_0
  6
CONTINUOUS
 62
    7
 10
0
 20
0
 11
3.0781812899310808
 21
8.4572335870731195
  0
LINE
  8
_0-0_0
  6
CONTINUOUS
 62
    7
 10
0
 20
0
 11
5.7850884871788821
 21
6.8943999880707452
  0
LINE
  8
_0-0_0
  6
CONTINUOUS
 62
    7
 10
0
 20
0
 11
15.754681530358539
 21
27.287908867647729
  0
LINE
  8
_0-0_0
  6
CONTINUOUS
 62
    7
 10
15.754681530358539
 20
27.287908867647729
 11
64.404735194772002
 21
27.287908867647729
  0
TEXT
  8
_0-0_0
 62
    7
 10
19.404735194772002
 20
32.287908867647729
 40
6
 41
1
 50
0
  1
トリトン
  0
ENDBLK
  0
BLOCK
  2
-005-BV_ATTRIBUTE5
 70
   64
 10
0
 20
0
 30
0
  0
LINE
  8
_0-0_0
  6
CONTINUOUS
 62
    7
 10
0
 20
0
 11
5.7850884871788537
 21
-6.894399988070802
  0
LINE
  8
_0-0_0
  6
CONTINUOUS
 62
    7
 10
0
 20
0
 11
3.0781812899310239
 21
-8.4572335870731763
  0
LINE
  8
_0-0_0
  6
CONTINUOUS
 62
    7
 10
0
 20
0
 11
36.407045225453231
 21
-63.058852083942952
  0
LINE
  8
_0-0_0
  6
CONTINUOUS
 62
    7
 10
36.407045225453231
 20
-63.058852083942952
 11
65.370928868043421
 21
-63.058852083942952
  0
TEXT
  8
_0-0_0
 62
    7
 10
40.370928868043421
 20
-58.058852083942952
 40
6
 41
1
 50
0
  1
傘釘
  0
ENDBLK
  0
BLOCK
  2
-006-BV_ATTRIBUTE6
 70
   64
 10
0
 20
0
 30
0
  0
LINE
  8
_0-0_0
  6
CONTINUOUS
 62
    7
 10
0
 20
0
 11
23.043314070444467
 21
39.912190744776353
  0
LINE
  8
_0-0_0
  6
CONTINUOUS
 62
    7
 10
23.043314070444467
 20
39.912190744776353
 11
-136.12261248557866
 21
39.912190744776353
  0
TEXT
  8
_0-0_0
 62
    7
 10
-131.12261248557866
 20
44.912190744776353
 40
9
 41
1
 50
0
  1
STスクリングハット釘
  0
ENDBLK
  0
BLOCK
  2
-007-BV_ATTRIBUTE7
 70
   64
 10
0
 20
0
 30
0
  0
LINE
  8
_0-0_0
  6
CONTINUOUS
 62
    7
 10
0
 20
0
 11
21.490531174677017
 21
37.222691876183035
  0
LINE
  8
_0-0_0
  6
CONTINUOUS
 62
    7
 10
21.490531174677017
 20
37.222691876183035
 11
-104.42421001464766
 21
37.222691876183035
  0
TEXT
  8
_0-0_0
 62
    7
 10
-99.424210014647656
 20
42.222691876183035
 40
9
 41
1
 50
0
  1
水上側トリトン
  0
ENDBLK
  0
BLOCK
  2
-008-BV_ATTRIBUTE8
 70
   64
 10
0
 20
0
 30
0
  0
LINE
  8
_0-0_0
  6
CONTINUOUS
 62
    7
 10
0
 20
0
 11
5.7850884871788253
 21
-6.8943999880708589
  0
LINE
  8
_0-0_0
  6
CONTINUOUS
 62
    7
 10
0
 20
0
 11
3.0781812899310239
 21
-8.4572335870732331
  0
LINE
  8
_0-0_0
  6
CONTINUOUS
 62
    7
 10
0
 20
0
 11
26.520539347604654
 21
-45.934921594180992
  0
LINE
  8
_0-0_0
  6
CONTINUOUS
 62
    7
 10
26.520539347604654
 20
-45.934921594180992
 11
80.271457652674712
 21
-45.934921594180992
  0
TEXT
  8
_0-0_0
 62
    7
 10
35.271457652674599
 20
-40.934921594180992
 40
6
 41
1
 50
0
  1
トリトン
  0
ENDBLK
  0
BLOCK
  2
-009-BV_ATTRIBUTE9
 70
   64
 10
0
 20
0
 30
0
  0
LINE
  8
_0-0_0
  6
CONTINUOUS
 62
    7
 10
0
 20
0
 11
3.0781812899310239
 21
8.4572335870732331
  0
LINE
  8
_0-0_0
  6
CONTINUOUS
 62
    7
 10
0
 20
0
 11
5.7850884871788537
 21
6.8943999880708589
  0
LINE
  8
_0-0_0
  6
CONTINUOUS
 62
    7
 10
0
 20
0
 11
20.262944245199435
 21
35.096448943620885
  0
LINE
  8
_0-0_0
  6
CONTINUOUS
 62
    7
 10
20.262944245199435
 20
35.096448943620885
 11
-134.60105216485312
 21
35.096448943620885
  0
TEXT
  8
_0-0_0
 62
    7
 10
-129.60105216485312
 20
40.096448943620885
 40
6
 41
1
 50
0
  1
ＳＴスクリングシルクハット釘
  0
ENDBLK
  0
BLOCK
  2
-010-BV_ATTRIBUTE10
 70
   64
 10
0
 20
0
 30
0
  0
LINE
  8
_0-0_0
  6
CONTINUOUS
 62
    7
 10
0
 20
0
 11
5.7850884871788537
 21
-6.8943999880708589
  0
LINE
  8
_0-0_0
  6
CONTINUOUS
 62
    7
 10
0
 20
0
 11
3.0781812899310239
 21
-8.4572335870732331
  0
LINE
  8
_0-0_0
  6
CONTINUOUS
 62
    7
 10
0
 20
0
 11
33.150674184505846
 21
-57.418651992726154
  0
LINE
  8
_0-0_0
  6
CONTINUOUS
 62
    7
 10
33.150674184505846
 20
-57.418651992726154
 11
66.013322851947322
 21
-57.418651992726154
  0
TEXT
  8
_0-0_0
 62
    7
 10
41.013322851947322
 20
-52.418651992726154
 40
6
 41
1
 50
0
  1
母屋
  0
ENDBLK
  0
BLOCK
  2
-011-BV_ATTRIBUTE11
 70
   64
 10
0
 20
0
 30
0
  0
LINE
  8
_0-0_0
  6
CONTINUOUS
 62
    7
 10
0
 20
0
 11
5.7850884871788821
 21
-6.8943999880707452
  0
LINE
  8
_0-0_0
  6
CONTINUOUS
 62
    7
 10
0
 20
0
 11
3.0781812899310808
 21
-8.4572335870731195
  0
LINE
  8
_0-0_0
  6
CONTINUOUS
 62
    7
 10
0
 20
0
 11
26.736043823718319
 21
-46.308186296068016
  0
LINE
  8
_0-0_0
  6
CONTINUOUS
 62
    7
 10
26.736043823718319
 20
-46.308186296068016
 11
58.444801213827304
 21
-46.308186296068016
  0
TEXT
  8
_0-0_0
 62
    7
 10
33.444801213827304
 20
-41.308186296068016
 40
6
 41
1
 50
0
  1
母屋
  0
ENDBLK
  0
BLOCK
  2
-012-BV_ATTRIBUTE12
 70
   64
 10
0
 20
0
 30
0
  0
LINE
  8
_0-0_0
  6
CONTINUOUS
 62
    7
 10
0
 20
0
 11
-5.7850884871788395
 21
6.894399988070802
  0
LINE
  8
_0-0_0
  6
CONTINUOUS
 62
    7
 10
0
 20
0
 11
-3.0781812899309955
 21
8.4572335870731763
  0
LINE
  8
_0-0_0
  6
CONTINUOUS
 62
    7
 10
0
 20
0
 11
-19.092401780052796
 21
33.069009921570114
  0
LINE
  8
_0-0_0
  6
CONTINUOUS
 62
    7
 10
-19.092401780052796
 20
33.069009921570114
 11
32.577365350985474
 21
33.069009921570114
  0
TEXT
  8
_0-0_0
 62
    7
 10
-12.422634649014526
 20
38.069009921570114
 40
6
 41
1
 50
0
  1
コーナー
  0
ENDBLK
  0
BLOCK
  2
-013-BV_ATTRIBUTE13
 70
   64
 10
0
 20
0
 30
0
  0
LINE
  8
_0-0_0
  6
CONTINUOUS
 62
    7
 10
0
 20
0
 11
3.0781812899310808
 21
8.4572335870731763
  0
LINE
  8
_0-0_0
  6
CONTINUOUS
 62
    7
 10
0
 20
0
 11
5.7850884871789106
 21
6.8943999880707452
  0
LINE
  8
_0-0_0
  6
CONTINUOUS
 62
    7
 10
0
 20
0
 11
12.600985174835102
 21
21.825546548236275
  0
LINE
  8
_0-0_0
  6
CONTINUOUS
 62
    7
 10
12.600985174835102
 20
21.825546548236275
 11
162.85726535764826
 21
21.825546548236275
  0
TEXT
  8
_0-0_0
 62
    7
 10
17.857265357647918
 20
26.825546548236275
 40
6
 41
1
 50
0
  1
ＳＴスクリングシルクハット釘
  0
ENDBLK
  0
BLOCK
  2
-014-BV_ATTRIBUTE14
 70
   64
 10
0
 20
0
 30
0
  0
LINE
  8
_0-0_0
  6
CONTINUOUS
 62
    7
 10
0
 20
0
 11
27.612877212471631
 21
-47.826906275161463
  0
LINE
  8
_0-0_0
  6
CONTINUOUS
 62
    7
 10
27.612877212471631
 20
-47.826906275161463
 11
163.97318993591273
 21
-47.826906275161463
  0
TEXT
  8
_0-0_0
 62
    7
 10
31.473189935912728
 20
-42.826906275161463
 40
9
 41
1
 50
0
  1
母屋は2本だかせる
  0
ENDBLK
  0
BLOCK
  2
-015-BV_ATTRIBUTE15
 70
   64
 10
0
 20
0
 30
0
  0
LINE
  8
_0-0_0
  6
CONTINUOUS
 62
    7
 10
0
 20
0
 11
42.449672833387808
 21
-73.524990112103879
  0
LINE
  8
_0-0_0
  6
CONTINUOUS
 62
    7
 10
42.449672833387808
 20
-73.524990112103879
 11
115.69277838141727
 21
-73.524990112103879
  0
TEXT
  8
_0-0_0
 62
    7
 10
49.69277838141727
 20
-70.524990112103879
 40
9
 41
1
 50
0
  1
水下側トリトン
  0
ENDBLK
  0
BLOCK
  2
-016-BV_ATTRIBUTE16
 70
   64
 10
0
 20
0
 30
0
  0
LINE
  8
_0-0_0
  6
CONTINUOUS
 62
    7
 10
0
 20
0
 11
-41.414888459335202
 21
71.732691001367016
  0
LINE
  8
_0-0_0
  6
CONTINUOUS
 62
    7
 10
-41.414888459335202
 20
71.732691001367016
 11
-144.87682276366729
 21
71.732691001366902
  0
TEXT
  8
_0-0_0
 62
    7
 10
-139.87682276366729
 20
76.732691001366902
 40
9
 41
1
 50
0
  1
リベット留め
  0
ENDBLK
  0
BLOCK
  2
-017-BV_ATTRIBUTE17
 70
   64
 10
0
 20
0
 30
0
  0
LINE
  8
_0-0_0
  6
CONTINUOUS
 62
    7
 10
0
 20
0
 11
-5.7850884871788821
 21
6.8943999880708589
  0
LINE
  8
_0-0_0
  6
CONTINUOUS
 62
    7
 10
0
 20
0
 11
-3.0781812899309671
 21
8.4572335870732331
  0
LINE
  8
_0-0_0
  6
CONTINUOUS
 62
    7
 10
0
 20
0
 11
-19.787534047686904
 21
34.273014327092824
  0
LINE
  8
_0-0_0
  6
CONTINUOUS
 62
    7
 10
-19.787534047686904
 20
34.273014327092824
 11
-45.051238124275756
 21
34.27301432709271
  0
TEXT
  8
_0-0_0
 62
    7
 10
-42.051238124275756
 20
37.27301432709271
 40
9
 41
1
 50
0
  1
傘釘
  0
ENDBLK
  0
ENDSEC
  0
SECTION
  2
ENTITIES
  0
POINT
  8
_0-0_0
 62
    3
 10
1242.9938257707131
 20
1298.8159740551096
  0
POINT
  8
_0-0_0
 62
    3
 10
632.99383588739352
 20
874.81598511902052
  0
POINT
  8
_0-0_0
 62
    2
 10
785.54160859306205
 20
705.52366434274961
  0
POINT
  8
_0-0_0
 62
    2
 10
755.7140964093453
 20
671.72007773206053
  0
POINT
  8
_0-0_0
 62
    2
 10
1613.1895765260365
 20
712.92934959521745
  0
POINT
  8
_0-0_0
 62
    2
 10
1568.377165500262
 20
699.71708376561219
  0
POINT
  8
_0-0_0
 62
    2
 10
843.16380801412424
 20
1086.6441369654967
  0
POINT
  8
_0-0_0
 62
    2
 10
875.2522623406137
 20
752.86095906420269
  0
POINT
  8
_0-0_0
 62
    2
 10
1418.3673698711207
 20
1114.6481873052953
  0
POINT
  8
_0-0_0
 62
    2
 10
1642.5049509857336
 20
1114.6481873052953
  0
LINE
  8
_0-1_0_04____
  6
CONTINUOUS
 62
    7
 10
633.89393593813918
 20
1297.9159859322212
 11
1852.0938275311444
 21
1297.9159859322212
  0
LINE
  8
_0-1_0_04____
  6
CONTINUOUS
 62
    7
 10
635.09393595360416
 20
1296.7160265123521
 11
1850.8938681112757
 21
1296.7160265123521
  0
LINE
  8
_0-1_0_04____
  6
CONTINUOUS
 62
    7
 10
636.29393596906914
 20
1295.5159928605365
 11
1849.6938344594594
 21
1295.5159928605365
  0
LINE
  8
_0-1_0_04____
  6
CONTINUOUS
 62
    7
 10
637.49393598453412
 20
1294.3159592087204
 11
1848.4938008076438
 21
1294.3159592087204
  0
LINE
  8
_0-1_0_04____
  6
CONTINUOUS
 62
    7
 10
633.89393593813918
 20
1297.9159859322212
 11
633.89393593813918
 21
451.71599590456162
  0
LINE
  8
_0-1_0_04____
  6
CONTINUOUS
 62
    7
 10
635.09393595360416
 20
1296.7160265123521
 11
635.09393595360416
 21
452.9159959200266
  0
LINE
  8
_0-1_0_04____
  6
CONTINUOUS
 62
    7
 10
636.29393596906914
 20
1295.5159928605365
 11
636.29393596906914
 21
454.11599593549158
  0
LINE
  8
_0-1_0_04____
  6
CONTINUOUS
 62
    7
 10
637.49393598453412
 20
1294.3159592087204
 11
637.49393598453412
 21
455.3159965308937
  0
LINE
  8
_0-1_0_04____
  6
CONTINUOUS
 62
    7
 10
637.49393598453412
 20
455.3159965308937
 11
1848.4938008076438
 21
455.3159965308937
  0
LINE
  8
_0-1_0_04____
  6
CONTINUOUS
 62
    7
 10
636.29383621989064
 20
454.11599593549158
 11
1849.6938344594594
 21
454.11599593549158
  0
LINE
  8
_0-1_0_04____
  6
CONTINUOUS
 62
    7
 10
635.09383620442577
 20
452.9159959200266
 11
1850.8939423432219
 21
452.9159959200266
  0
LINE
  8
_0-1_0_04____
  6
CONTINUOUS
 62
    7
 10
1848.4938008076438
 20
1294.3159592087204
 11
1848.4938008076438
 21
455.3159965308937
  0
LINE
  8
_0-1_0_04____
  6
CONTINUOUS
 62
    7
 10
1849.6938344594594
 20
1295.5159928605365
 11
1849.6938344594594
 21
454.11599593549158
  0
LINE
  8
_0-1_0_04____
  6
CONTINUOUS
 62
    7
 10
1850.8938681112757
 20
1296.7160265123521
 11
1850.8938681112757
 21
452.9159959200266
  0
LINE
  8
_0-1_0_04____
  6
CONTINUOUS
 62
    7
 10
633.89383589899217
 20
451.71599590456162
 11
1852.0939017630913
 21
451.71599590456162
  0
LINE
  8
_0-1_0_04____
  6
CONTINUOUS
 62
    7
 10
657.7698349308323
 20
451.71599590456162
 11
1828.217864165435
 21
451.71599590456162
  0
LINE
  8
_0-1_0_04____
  6
CONTINUOUS
 62
    7
 10
1852.0938275311444
 20
1297.9159859322212
 11
1852.0938275311444
 21
451.71599590456162
  0
LINE
  8
_0-1_0_04____
  6
CONTINUOUS
 62
    4
 10
1064.1711508261192
 20
488.52849692267341
 11
1063.7237177668389
 21
487.27189388790646
  0
LINE
  8
_0-1_0_04____
  6
CONTINUOUS
 62
    4
 10
1063.7237177668389
 20
487.27189388790646
 11
1055.2698496225719
 21
463.52909567549426
  0
LINE
  8
_0-1_0_04____
  6
CONTINUOUS
 62
    4
 10
1055.2698496225719
 20
463.52909567549426
 11
1073.7403539709144
 21
463.52909567549426
  0
LINE
  8
_0-1_0_04____
  6
CONTINUOUS
 62
    4
 10
1073.7403539709144
 20
463.52909567549426
 11
1065.5664516139675
 21
486.48569406045453
  0
LINE
  8
_0-1_0_04____
  6
CONTINUOUS
 62
    4
 10
1065.4851676322319
 20
486.71371604300839
 11
1065.4851305162583
 21
486.71389698337867
  0
LINE
  8
_0-1_0_04____
  6
CONTINUOUS
 62
    4
 10
1067.5198281777871
 20
487.30979393623966
 11
1067.5198652937606
 21
487.30967794882281
  0
LINE
  8
_0-1_0_04____
  6
CONTINUOUS
 62
    4
 10
1067.5538264094171
 20
487.19359774202917
 11
1075.9798204576646
 21
463.52909567549426
  0
LINE
  8
_0-1_0_04____
  6
CONTINUOUS
 62
    4
 10
1075.9798204576646
 20
463.52909567549426
 11
1090.3295238597971
 21
463.52909567549426
  0
LINE
  8
_0-1_0_04____
  6
CONTINUOUS
 62
    4
 10
1090.3295238597971
 20
463.52909567549426
 11
1081.4050251728777
 21
488.59369576943891
  0
LINE
  8
_0-1_0_04____
  6
CONTINUOUS
 62
    2
 10
1168.9641302985115
 20
479.76049541782692
 11
1168.9641302985115
 21
478.40099530606653
  0
LINE
  8
_0-1_0_04____
  6
CONTINUOUS
 62
    2
 10
1168.9641302985115
 20
478.40099530606653
 11
1174.5635202768688
 21
478.40099530606653
  0
LINE
  8
_0-1_0_04____
  6
CONTINUOUS
 62
    2
 10
1174.5635202768688
 20
478.40099530606653
 11
1174.5635202768688
 21
481.60059635059258
  0
LINE
  8
_0-1_0_04____
  6
CONTINUOUS
 62
    2
 10
1174.5635202768688
 20
481.60059635059258
 11
1174.5168283823375
 21
481.79579621392327
  0
LINE
  8
_0-1_0_04____
  6
CONTINUOUS
 62
    2
 10
1174.5168283823375
 20
481.79579621392327
 11
1174.4624534813133
 21
481.98899645418737
  0
LINE
  8
_0-1_0_04____
  6
CONTINUOUS
 62
    2
 10
1174.4624534813133
 20
481.98899645418737
 11
1174.40054403769
 21
482.1798955041009
  0
LINE
  8
_0-1_0_04____
  6
CONTINUOUS
 62
    2
 10
1174.40054403769
 20
482.1798955041009
 11
1174.331248515361
 21
482.36829618505527
  0
LINE
  8
_0-1_0_04____
  6
CONTINUOUS
 62
    2
 10
1174.331248515361
 20
482.36829618505527
 11
1174.2545297983531
 21
482.55369511166134
  0
LINE
  8
_0-1_0_04____
  6
CONTINUOUS
 62
    2
 10
1174.2545297983531
 20
482.55369511166134
 11
1174.1706476984796
 21
482.73599485448887
  0
LINE
  8
_0-1_0_04____
  6
CONTINUOUS
 62
    2
 10
1174.1706476984796
 20
482.73599485448887
 11
1174.0796393317146
 21
482.91489616600245
  0
LINE
  8
_0-1_0_04____
  6
CONTINUOUS
 62
    2
 10
1174.0796393317146
 20
482.91489616600245
 11
1173.9816531619508
 21
483.09009515916978
  0
LINE
  8
_0-1_0_04____
  6
CONTINUOUS
 62
    2
 10
1173.9816531619508
 20
483.09009515916978
 11
1173.8769490010027
 21
483.26129490620383
  0
LINE
  8
_0-1_0_04____
  6
CONTINUOUS
 62
    2
 10
1173.8769490010027
 20
483.26129490620383
 11
1173.7655268488702
 21
483.42829590874749
  0
LINE
  8
_0-1_0_04____
  6
CONTINUOUS
 62
    2
 10
1173.7655268488702
 20
483.42829590874749
 11
1173.6476465173669
 21
483.59069685033847
  0
LINE
  8
_0-1_0_04____
  6
CONTINUOUS
 62
    2
 10
1173.6476465173669
 20
483.59069685033847
 11
1173.5235307023331
 21
483.74839566205003
  0
LINE
  8
_0-1_0_04____
  6
CONTINUOUS
 62
    2
 10
1173.5235307023331
 20
483.74839566205003
 11
1173.3932536357161
 21
483.90109541609485
  0
LINE
  8
_0-1_0_04____
  6
CONTINUOUS
 62
    2
 10
1173.3932536357161
 20
483.90109541609485
 11
1173.2571493612754
 21
484.04859661411598
  0
LINE
  8
_0-1_0_04____
  6
CONTINUOUS
 62
    2
 10
1173.2571493612754
 20
484.04859661411598
 11
1173.1153292269319
 21
484.19059536908128
  0
LINE
  8
_0-1_0_04____
  6
CONTINUOUS
 62
    2
 10
1173.1153292269319
 20
484.19059536908128
 11
1172.9680530444998
 21
484.32689682213038
  0
LINE
  8
_0-1_0_04____
  6
CONTINUOUS
 62
    2
 10
1172.9680530444998
 20
484.32689682213038
 11
1172.8155435098183
 21
484.45739426483976
  0
LINE
  8
_0-1_0_04____
  6
CONTINUOUS
 62
    2
 10
1172.8155435098183
 20
484.45739426483976
 11
1172.6579490867821
 21
484.58169565974055
  0
LINE
  8
_0-1_0_04____
  6
CONTINUOUS
 62
    2
 10
1172.6579490867821
 20
484.58169565974055
 11
1172.4956409351248
 21
484.69979404758766
  0
LINE
  8
_0-1_0_04____
  6
CONTINUOUS
 62
    2
 10
1172.4956409351248
 20
484.69979404758766
 11
1172.3288417506863
 21
484.81139714009055
  0
LINE
  8
_0-1_0_04____
  6
CONTINUOUS
 62
    2
 10
1172.3288417506863
 20
484.81139714009055
 11
1172.1578484612544
 21
484.91639822882576
  0
LINE
  8
_0-1_0_04____
  6
CONTINUOUS
 62
    2
 10
1172.1578484612544
 20
484.91639822882576
 11
1171.9827352987754
 21
485.01459781543633
  0
LINE
  8
_0-1_0_04____
  6
CONTINUOUS
 62
    2
 10
1171.9827352987754
 20
485.01459781543633
 11
1171.8040218868773
 21
485.10579640156516
  0
LINE
  8
_0-1_0_04____
  6
CONTINUOUS
 62
    2
 10
1171.8040218868773
 20
485.10579640156516
 11
1171.6217453415329
 21
485.18989655778211
  0
LINE
  8
_0-1_0_04____
  6
CONTINUOUS
 62
    2
 10
1171.6217453415329
 20
485.18989655778211
 11
1171.4364252863702
 21
485.26689828408735
  0
LINE
  8
_0-1_0_04____
  6
CONTINUOUS
 62
    2
 10
1171.4364252863702
 20
485.26689828408735
 11
1171.2481359533363
 21
485.33649537370007
  0
LINE
  8
_0-1_0_04____
  6
CONTINUOUS
 62
    2
 10
1171.2481359533363
 20
485.33649537370007
 11
1171.057322734111
 21
485.39859503668708
  0
LINE
  8
_0-1_0_04____
  6
CONTINUOUS
 62
    2
 10
1171.057322734111
 20
485.39859503668708
 11
1170.8642454405087
 21
485.4531972730482
  0
LINE
  8
_0-1_0_04____
  6
CONTINUOUS
 62
    2
 10
1170.8642454405087
 20
485.4531972730482
 11
1170.6690525364231
 21
485.50019537435992
  0
LINE
  8
_0-1_0_04____
  6
CONTINUOUS
 62
    2
 10
1170.6690525364231
 20
485.50019537435992
 11
1170.4722265295081
 21
485.53949655068891
  0
LINE
  8
_0-1_0_04____
  6
CONTINUOUS
 62
    2
 10
1170.4722265295081
 20
485.53949655068891
 11
1170.2740272315773
 21
485.57099409361138
  0
LINE
  8
_0-1_0_04____
  6
CONTINUOUS
 62
    2
 10
1170.2740272315773
 20
485.57099409361138
 11
1170.0747515704181
 21
485.59469728212105
  0
LINE
  8
_0-1_0_04____
  6
CONTINUOUS
 62
    2
 10
1170.0747515704181
 20
485.59469728212105
 11
1170.0177414352829
 21
485.60009765625
  0
LINE
  8
_0-1_0_04____
  6
CONTINUOUS
 62
    2
 10
1170.0177414352829
 20
485.60009765625
 11
1170.0167393040012
 21
485.60009765625
  0
LINE
  8
_0-1_0_04____
  6
CONTINUOUS
 62
    2
 10
1170.0167393040012
 20
485.60009765625
 11
1166.5539303341429
 21
485.60009765625
  0
LINE
  8
_0-1_0_04____
  6
CONTINUOUS
 62
    2
 10
1166.5539303341429
 20
485.60009765625
 11
1166.3107464764569
 21
485.58579408800279
  0
LINE
  8
_0-1_0_04____
  6
CONTINUOUS
 62
    2
 10
1166.3107464764569
 20
485.58579408800279
 11
1166.0683420542125
 21
485.5619981095598
  0
LINE
  8
_0-1_0_04____
  6
CONTINUOUS
 62
    2
 10
1166.0683420542125
 20
485.5619981095598
 11
1165.8270511111696
 21
485.52879787135765
  0
LINE
  8
_0-1_0_04____
  6
CONTINUOUS
 62
    2
 10
1165.8270511111696
 20
485.52879787135765
 11
1165.5871334591429
 21
485.48619801289328
  0
LINE
  8
_0-1_0_04____
  6
CONTINUOUS
 62
    2
 10
1165.5871334591429
 20
485.48619801289328
 11
1165.3491458377321
 21
485.43419389466987
  0
LINE
  8
_0-1_0_04____
  6
CONTINUOUS
 62
    2
 10
1165.3491458377321
 20
485.43419389466987
 11
1165.1133480587523
 21
485.37299429403765
  0
LINE
  8
_0-1_0_04____
  6
CONTINUOUS
 62
    2
 10
1165.1133480587523
 20
485.37299429403765
 11
1164.8801483979096
 21
485.30269664042703
  0
LINE
  8
_0-1_0_04____
  6
CONTINUOUS
 62
    2
 10
1164.8801483979096
 20
485.30269664042703
 11
1164.6498437829919
 21
485.22329629434125
  0
LINE
  8
_0-1_0_04____
  6
CONTINUOUS
 62
    2
 10
1164.6498437829919
 20
485.22329629434125
 11
1164.4228424897065
 21
485.13489532470703
  0
LINE
  8
_0-1_0_04____
  6
CONTINUOUS
 62
    2
 10
1164.4228424897065
 20
485.13489532470703
 11
1164.1994414458404
 21
485.03779529880836
  0
LINE
  8
_0-1_0_04____
  6
CONTINUOUS
 62
    2
 10
1164.1994414458404
 20
485.03779529880836
 11
1163.9799375791806
 21
484.93209828557195
  0
LINE
  8
_0-1_0_04____
  6
CONTINUOUS
 62
    2
 10
1163.9799375791806
 20
484.93209828557195
 11
1163.764739165435
 21
484.81779500600453
  0
LINE
  8
_0-1_0_04____
  6
CONTINUOUS
 62
    2
 10
1163.764739165435
 20
484.81779500600453
 11
1163.5542544803102
 21
484.69529373581344
  0
LINE
  8
_0-1_0_04____
  6
CONTINUOUS
 62
    2
 10
1163.5542544803102
 20
484.69529373581344
 11
1163.3486319877006
 21
484.56459447499867
  0
LINE
  8
_0-1_0_04____
  6
CONTINUOUS
 62
    2
 10
1163.3486319877006
 20
484.56459447499867
 11
1163.1483541952598
 21
484.42599415134742
  0
LINE
  8
_0-1_0_04____
  6
CONTINUOUS
 62
    2
 10
1163.1483541952598
 20
484.42599415134742
 11
1162.9535324509079
 21
484.27979665189173
  0
LINE
  8
_0-1_0_04____
  6
CONTINUOUS
 62
    2
 10
1162.9535324509079
 20
484.27979665189173
 11
1162.7646492622994
 21
484.1259950173868
  0
LINE
  8
_0-1_0_04____
  6
CONTINUOUS
 62
    2
 10
1162.7646492622994
 20
484.1259950173868
 11
1162.5818530933279
 21
483.96489545461293
  0
LINE
  8
_0-1_0_04____
  6
CONTINUOUS
 62
    2
 10
1162.5818530933279
 20
483.96489545461293
 11
1162.40544087178
 21
483.7968969602843
  0
LINE
  8
_0-1_0_04____
  6
CONTINUOUS
 62
    2
 10
1162.40544087178
 20
483.7968969602843
 11
1162.2358208733638
 21
483.62209696383093
  0
LINE
  8
_0-1_0_04____
  6
CONTINUOUS
 62
    2
 10
1162.2358208733638
 20
483.62209696383093
 11
1162.0730302140519
 21
483.44079703253669
  0
LINE
  8
_0-1_0_04____
  6
CONTINUOUS
 62
    2
 10
1162.0730302140519
 20
483.44079703253669
 11
1161.9175514014992
 21
483.25329641393711
  0
LINE
  8
_0-1_0_04____
  6
CONTINUOUS
 62
    2
 10
1161.9175514014992
 20
483.25329641393711
 11
1161.7694215516788
 21
483.05989667531605
  0
LINE
  8
_0-1_0_04____
  6
CONTINUOUS
 62
    2
 10
1161.7694215516788
 20
483.05989667531605
 11
1161.6290489402977
 21
482.86079499528211
  0
LINE
  8
_0-1_0_04____
  6
CONTINUOUS
 62
    2
 10
1161.6290489402977
 20
482.86079499528211
 11
1161.4965449152764
 21
482.65639501004603
  0
LINE
  8
_0-1_0_04____
  6
CONTINUOUS
 62
    2
 10
1161.4965449152764
 20
482.65639501004603
 11
1161.3720208245356
 21
482.44699596714332
  0
LINE
  8
_0-1_0_04____
  6
CONTINUOUS
 62
    2
 10
1161.3720208245356
 20
482.44699596714332
 11
1161.2558478278083
 21
482.23289711410933
  0
LINE
  8
_0-1_0_04____
  6
CONTINUOUS
 62
    2
 10
1161.2558478278083
 20
482.23289711410933
 11
1161.148025925095
 21
482.01449512790992
  0
LINE
  8
_0-1_0_04____
  6
CONTINUOUS
 62
    2
 10
1161.148025925095
 20
482.01449512790992
 11
1161.0488520441827
 21
481.79199646614688
  0
LINE
  8
_0-1_0_04____
  6
CONTINUOUS
 62
    2
 10
1161.0488520441827
 20
481.79199646614688
 11
1160.9584375329919
 21
481.56579548603781
  0
LINE
  8
_0-1_0_04____
  6
CONTINUOUS
 62
    2
 10
1160.9584375329919
 20
481.56579548603781
 11
1160.893929971231
 21
481.38659492698878
  0
LINE
  8
_0-1_0_04____
  6
CONTINUOUS
 62
    2
 10
1160.893929971231
 20
481.38659492698878
 11
1160.8851334855362
 21
481.36059518762539
  0
LINE
  8
_0-1_0_04____
  6
CONTINUOUS
 62
    2
 10
1160.8851334855362
 20
481.36059518762539
 11
1160.8851334855362
 21
477.09709492245236
  0
LINE
  8
_0-1_0_04____
  6
CONTINUOUS
 62
    2
 10
1160.8851334855362
 20
477.09709492245236
 11
1160.9407332136825
 21
476.85779664323132
  0
LINE
  8
_0-1_0_04____
  6
CONTINUOUS
 62
    2
 10
1160.9407332136825
 20
476.85779664323132
 11
1161.0055377032306
 21
476.62079491486418
  0
LINE
  8
_0-1_0_04____
  6
CONTINUOUS
 62
    2
 10
1161.0055377032306
 20
476.62079491486418
 11
1161.0796211861275
 21
476.38659544248833
  0
LINE
  8
_0-1_0_04____
  6
CONTINUOUS
 62
    2
 10
1161.0796211861275
 20
476.38659544248833
 11
1161.1627238505598
 21
476.15539540471258
  0
LINE
  8
_0-1_0_04____
  6
CONTINUOUS
 62
    2
 10
1161.1627238505598
 20
476.15539540471258
 11
1161.2548456965264
 21
475.92759611799914
  0
LINE
  8
_0-1_0_04____
  6
CONTINUOUS
 62
    2
 10
1161.2548456965264
 20
475.92759611799914
 11
1161.355726912215
 21
475.70359657906192
  0
LINE
  8
_0-1_0_04____
  6
CONTINUOUS
 62
    2
 10
1161.355726912215
 20
475.70359657906192
 11
1161.4653303816513
 21
475.48369603543665
  0
LINE
  8
_0-1_0_04____
  6
CONTINUOUS
 62
    2
 10
1161.4653303816513
 20
475.48369603543665
 11
1161.5833220610748
 21
475.26829580358554
  0
LINE
  8
_0-1_0_04____
  6
CONTINUOUS
 62
    2
 10
1161.5833220610748
 20
475.26829580358554
 11
1161.709739066459
 21
475.05759538186567
  0
LINE
  8
_0-1_0_04____
  6
CONTINUOUS
 62
    2
 10
1161.709739066459
 20
475.05759538186567
 11
1161.8442473540435
 21
474.85199608673918
  0
LINE
  8
_0-1_0_04____
  6
CONTINUOUS
 62
    2
 10
1161.8442473540435
 20
474.85199608673918
 11
1161.9867355759079
 21
474.65179484599344
  0
LINE
  8
_0-1_0_04____
  6
CONTINUOUS
 62
    2
 10
1161.9867355759079
 20
474.65179484599344
 11
1162.1368325723183
 21
474.45729554666059
  0
LINE
  8
_0-1_0_04____
  6
CONTINUOUS
 62
    2
 10
1162.1368325723183
 20
474.45729554666059
 11
1162.2944269953546
 21
474.2688948657061
  0
LINE
  8
_0-1_0_04____
  6
CONTINUOUS
 62
    2
 10
1162.2944269953546
 20
474.2688948657061
 11
1162.4592219172296
 21
474.08669487205714
  0
LINE
  8
_0-1_0_04____
  6
CONTINUOUS
 62
    2
 10
1162.4592219172296
 20
474.08669487205714
 11
1162.6310317580765
 21
473.91109688217574
  0
LINE
  8
_0-1_0_04____
  6
CONTINUOUS
 62
    2
 10
1162.6310317580765
 20
473.91109688217574
 11
1162.8096338220544
 21
473.74229575492245
  0
LINE
  8
_0-1_0_04____
  6
CONTINUOUS
 62
    2
 10
1162.8096338220544
 20
473.74229575492245
 11
1162.9946198334565
 21
473.58059537732925
  0
LINE
  8
_0-1_0_04____
  6
CONTINUOUS
 62
    2
 10
1162.9946198334565
 20
473.58059537732925
 11
1163.1857299804687
 21
473.42629499693169
  0
LINE
  8
_0-1_0_04____
  6
CONTINUOUS
 62
    2
 10
1163.1857299804687
 20
473.42629499693169
 11
1163.382852915171
 21
473.27949668265683
  0
LINE
  8
_0-1_0_04____
  6
CONTINUOUS
 62
    2
 10
1163.382852915171
 20
473.27949668265683
 11
1163.5854318979625
 21
473.14059711146996
  0
LINE
  8
_0-1_0_04____
  6
CONTINUOUS
 62
    2
 10
1163.5854318979625
 20
473.14059711146996
 11
1163.7932442330025
 21
473.00959628337137
  0
LINE
  8
_0-1_0_04____
  6
CONTINUOUS
 62
    2
 10
1163.7932442330025
 20
473.00959628337137
 11
1164.0061414563979
 21
472.88689551482332
  0
LINE
  8
_0-1_0_04____
  6
CONTINUOUS
 62
    2
 10
1164.0061414563979
 20
472.88689551482332
 11
1164.223529712574
 21
472.77249712557409
  0
LINE
  8
_0-1_0_04____
  6
CONTINUOUS
 62
    2
 10
1164.223529712574
 20
472.77249712557409
 11
1164.445334769584
 21
472.66679547284105
  0
LINE
  8
_0-1_0_04____
  6
CONTINUOUS
 62
    2
 10
1164.445334769584
 20
472.66679547284105
 11
1164.6710370038006
 21
472.56969544694226
  0
LINE
  8
_0-1_0_04____
  6
CONTINUOUS
 62
    2
 10
1164.6710370038006
 20
472.56969544694226
 11
1164.9003394874367
 21
472.48159604459192
  0
LINE
  8
_0-1_0_04____
  6
CONTINUOUS
 62
    2
 10
1164.9003394874367
 20
472.48159604459192
 11
1165.1329452927048
 21
472.40239519686315
  0
LINE
  8
_0-1_0_04____
  6
CONTINUOUS
 62
    2
 10
1165.1329452927048
 20
472.40239519686315
 11
1165.3684461438979
 21
472.33239679078804
  0
LINE
  8
_0-1_0_04____
  6
CONTINUOUS
 62
    2
 10
1165.3684461438979
 20
472.33239679078804
 11
1165.6064337653083
 21
472.27159618686989
  0
LINE
  8
_0-1_0_04____
  6
CONTINUOUS
 62
    2
 10
1165.6064337653083
 20
472.27159618686989
 11
1165.8467225770694
 21
472.22019520321408
  0
LINE
  8
_0-1_0_04____
  6
CONTINUOUS
 62
    2
 10
1165.8467225770694
 20
472.22019520321408
 11
1166.0887187236067
 21
472.17819615956898
  0
LINE
  8
_0-1_0_04____
  6
CONTINUOUS
 62
    2
 10
1166.0887187236067
 20
472.17819615956898
 11
1166.3322366250527
 21
472.14559673618629
  0
LINE
  8
_0-1_0_04____
  6
CONTINUOUS
 62
    2
 10
1166.3322366250527
 20
472.14559673618629
 11
1166.5769422376479
 21
472.12259643142289
  0
LINE
  8
_0-1_0_04____
  6
CONTINUOUS
 62
    2
 10
1166.5769422376479
 20
472.12259643142289
 11
1166.8222417058173
 21
472.10909549610028
  0
LINE
  8
_0-1_0_04____
  6
CONTINUOUS
 62
    2
 10
1166.8222417058173
 20
472.10909549610028
 11
1167.0678381017738
 21
472.10529574832401
  0
LINE
  8
_0-1_0_04____
  6
CONTINUOUS
 62
    2
 10
1167.0678381017738
 20
472.10529574832401
 11
1167.3134344977302
 21
472.11099536998859
  0
LINE
  8
_0-1_0_04____
  6
CONTINUOUS
 62
    2
 10
1167.3134344977302
 20
472.11099536998859
 11
1167.3922317092483
 21
472.11529618340569
  0
LINE
  8
_0-1_0_04____
  6
CONTINUOUS
 62
    2
 10
1167.3922317092483
 20
472.11529618340569
 11
1167.4628262906463
 21
472.1091952452789
  0
LINE
  8
_0-1_0_04____
  6
CONTINUOUS
 62
    2
 10
1167.4628262906463
 20
472.1091952452789
 11
1167.5331239442569
 21
472.10019694147883
  0
LINE
  8
_0-1_0_04____
  6
CONTINUOUS
 62
    2
 10
1167.5331239442569
 20
472.10019694147883
 11
1167.6030504381333
 21
472.08849613086591
  0
LINE
  8
_0-1_0_04____
  6
CONTINUOUS
 62
    2
 10
1167.6030504381333
 20
472.08849613086591
 11
1167.6724201924089
 21
472.07409513318862
  0
LINE
  8
_0-1_0_04____
  6
CONTINUOUS
 62
    2
 10
1167.6724201924089
 20
472.07409513318862
 11
1167.741233207084
 21
472.05699626819501
  0
LINE
  8
_0-1_0_04____
  6
CONTINUOUS
 62
    2
 10
1167.741233207084
 20
472.05699626819501
 11
1167.8092296703439
 21
472.03719489638871
  0
LINE
  8
_0-1_0_04____
  6
CONTINUOUS
 62
    2
 10
1167.8092296703439
 20
472.03719489638871
 11
1167.8764466981631
 21
472.0146956572662
  0
LINE
  8
_0-1_0_04____
  6
CONTINUOUS
 62
    2
 10
1167.8764466981631
 20
472.0146956572662
 11
1167.9427358266469
 21
471.9895959802576
  0
LINE
  8
_0-1_0_04____
  6
CONTINUOUS
 62
    2
 10
1167.9427358266469
 20
471.9895959802576
 11
1168.0079485919025
 21
471.96189586536298
  0
LINE
  8
_0-1_0_04____
  6
CONTINUOUS
 62
    2
 10
1168.0079485919025
 20
471.96189586536298
 11
1168.0720478779558
 21
471.93169506176105
  0
LINE
  8
_0-1_0_04____
  6
CONTINUOUS
 62
    2
 10
1168.0720478779558
 20
471.93169506176105
 11
1168.1349223368879
 21
471.8989958891998
  0
LINE
  8
_0-1_0_04____
  6
CONTINUOUS
 62
    2
 10
1168.1349223368879
 20
471.8989958891998
 11
1168.1964235048038
 21
471.86379602793102
  0
LINE
  8
_0-1_0_04____
  6
CONTINUOUS
 62
    2
 10
1168.1964235048038
 20
471.86379602793102
 11
1168.256551381704
 21
471.82629497631183
  0
LINE
  8
_0-1_0_04____
  6
CONTINUOUS
 62
    2
 10
1168.256551381704
 20
471.82629497631183
 11
1168.3151203877214
 21
471.78639530491188
  0
LINE
  8
_0-1_0_04____
  6
CONTINUOUS
 62
    2
 10
1168.3151203877214
 20
471.78639530491188
 11
1168.3721305228569
 21
471.74419676290972
  0
LINE
  8
_0-1_0_04____
  6
CONTINUOUS
 62
    2
 10
1168.3721305228569
 20
471.74419676290972
 11
1168.4274333232161
 21
471.69989652891411
  0
LINE
  8
_0-1_0_04____
  6
CONTINUOUS
 62
    2
 10
1168.4274333232161
 20
471.69989652891411
 11
1168.4809545568519
 21
471.65339485374659
  0
LINE
  8
_0-1_0_04____
  6
CONTINUOUS
 62
    2
 10
1168.4809545568519
 20
471.65339485374659
 11
1168.5325457598713
 21
471.60479612608208
  0
LINE
  8
_0-1_0_04____
  6
CONTINUOUS
 62
    2
 10
1168.5325457598713
 20
471.60479612608208
 11
1168.5822440482475
 21
471.55429520478117
  0
LINE
  8
_0-1_0_04____
  6
CONTINUOUS
 62
    2
 10
1168.5822440482475
 20
471.55429520478117
 11
1168.6298267261404
 21
471.50179698016188
  0
LINE
  8
_0-1_0_04____
  6
CONTINUOUS
 62
    2
 10
1168.6298267261404
 20
471.50179698016188
 11
1168.6754422574431
 21
471.44759606026309
  0
LINE
  8
_0-1_0_04____
  6
CONTINUOUS
 62
    2
 10
1168.6754422574431
 20
471.44759606026309
 11
1168.7188308303421
 21
471.39149526647617
  0
LINE
  8
_0-1_0_04____
  6
CONTINUOUS
 62
    2
 10
1168.7188308303421
 20
471.39149526647617
 11
1168.7599182128906
 21
471.33379616608488
  0
LINE
  8
_0-1_0_04____
  6
CONTINUOUS
 62
    2
 10
1168.7599182128906
 20
471.33379616608488
 11
1168.7988528689821
 21
471.27459618851941
  0
LINE
  8
_0-1_0_04____
  6
CONTINUOUS
 62
    2
 10
1168.7988528689821
 20
471.27459618851941
 11
1168.8353378708298
 21
471.21379558460126
  0
LINE
  8
_0-1_0_04____
  6
CONTINUOUS
 62
    2
 10
1168.8353378708298
 20
471.21379558460126
 11
1168.86944745038
 21
471.15169592161431
  0
LINE
  8
_0-1_0_04____
  6
CONTINUOUS
 62
    2
 10
1168.86944745038
 20
471.15169592161431
 11
1168.9010331437394
 21
471.08829487981023
  0
LINE
  8
_0-1_0_04____
  6
CONTINUOUS
 62
    2
 10
1168.9010331437394
 20
471.08829487981023
 11
1168.9302434148017
 21
471.02369684786413
  0
LINE
  8
_0-1_0_04____
  6
CONTINUOUS
 62
    2
 10
1168.9302434148017
 20
471.02369684786413
 11
1168.9567442198056
 21
470.9579969354578
  0
LINE
  8
_0-1_0_04____
  6
CONTINUOUS
 62
    2
 10
1168.9567442198056
 20
470.9579969354578
 11
1168.9611239046662
 21
470.94649562320194
  0
LINE
  8
_0-1_0_04____
  6
CONTINUOUS
 62
    2
 10
1168.9611239046662
 20
470.94649562320194
 11
1168.9641302985115
 21
470.93809581447289
  0
LINE
  8
_0-1_0_04____
  6
CONTINUOUS
 62
    2
 10
1168.9641302985115
 20
470.93809581447289
 11
1168.9641302985115
 21
468.95679643991832
  0
LINE
  8
_0-1_0_04____
  6
CONTINUOUS
 62
    2
 10
1168.9641302985115
 20
468.95679643991832
 11
1168.9616435282942
 21
468.91909588994207
  0
LINE
  8
_0-1_0_04____
  6
CONTINUOUS
 62
    2
 10
1168.9616435282942
 20
468.91909588994207
 11
1168.9576350031671
 21
468.88159715807114
  0
LINE
  8
_0-1_0_04____
  6
CONTINUOUS
 62
    2
 10
1168.9576350031671
 20
468.88159715807114
 11
1168.9521418391046
 21
468.84429560480891
  0
LINE
  8
_0-1_0_04____
  6
CONTINUOUS
 62
    2
 10
1168.9521418391046
 20
468.84429560480891
 11
1168.9452382680531
 21
468.80719586965199
  0
LINE
  8
_0-1_0_04____
  6
CONTINUOUS
 62
    2
 10
1168.9452382680531
 20
468.80719586965199
 11
1168.9368500580658
 21
468.77039538203059
  0
LINE
  8
_0-1_0_04____
  6
CONTINUOUS
 62
    2
 10
1168.9368500580658
 20
468.77039538203059
 11
1168.9270514410896
 21
468.73399621087151
  0
LINE
  8
_0-1_0_04____
  6
CONTINUOUS
 62
    2
 10
1168.9270514410896
 20
468.73399621087151
 11
1168.9158424171242
 21
468.697896287248
  0
LINE
  8
_0-1_0_04____
  6
CONTINUOUS
 62
    2
 10
1168.9158424171242
 20
468.697896287248
 11
1168.9031487542231
 21
468.66239485869539
  0
LINE
  8
_0-1_0_04____
  6
CONTINUOUS
 62
    2
 10
1168.9031487542231
 20
468.66239485869539
 11
1168.8891189162796
 21
468.62739681553199
  0
LINE
  8
_0-1_0_04____
  6
CONTINUOUS
 62
    2
 10
1168.8891189162796
 20
468.62739681553199
 11
1168.8737529032942
 21
468.59289519851274
  0
LINE
  8
_0-1_0_04____
  6
CONTINUOUS
 62
    2
 10
1168.8737529032942
 20
468.59289519851274
 11
1168.8569393673461
 21
468.55909646523969
  0
LINE
  8
_0-1_0_04____
  6
CONTINUOUS
 62
    2
 10
1168.8569393673461
 20
468.55909646523969
 11
1168.8389381202492
 21
468.52599597621605
  0
LINE
  8
_0-1_0_04____
  6
CONTINUOUS
 62
    2
 10
1168.8389381202492
 20
468.52599597621605
 11
1168.8195264661636
 21
468.49359605119031
  0
LINE
  8
_0-1_0_04____
  6
CONTINUOUS
 62
    2
 10
1168.8195264661636
 20
468.49359605119031
 11
1168.7989271009292
 21
468.46189669016246
  0
LINE
  8
_0-1_0_04____
  6
CONTINUOUS
 62
    2
 10
1168.7989271009292
 20
468.46189669016246
 11
1168.777140024546
 21
468.43119714066785
  0
LINE
  8
_0-1_0_04____
  6
CONTINUOUS
 62
    2
 10
1168.777140024546
 20
468.43119714066785
 11
1168.754128121041
 21
468.40129558460126
  0
LINE
  8
_0-1_0_04____
  6
CONTINUOUS
 62
    2
 10
1168.754128121041
 20
468.40129558460126
 11
1168.7299285063873
 21
468.372296410638
  0
LINE
  8
_0-1_0_04____
  6
CONTINUOUS
 62
    2
 10
1168.7299285063873
 20
468.372296410638
 11
1168.704652528505
 21
468.34429704820786
  0
LINE
  8
_0-1_0_04____
  6
CONTINUOUS
 62
    2
 10
1168.704652528505
 20
468.34429704820786
 11
1168.6783373033677
 21
468.31729517756281
  0
LINE
  8
_0-1_0_04____
  6
CONTINUOUS
 62
    2
 10
1168.6783373033677
 20
468.31729517756281
 11
1168.6508343670819
 21
468.29139518737793
  0
LINE
  8
_0-1_0_04____
  6
CONTINUOUS
 62
    2
 10
1168.6508343670819
 20
468.29139518737793
 11
1168.6224406474348
 21
468.26649500872634
  0
LINE
  8
_0-1_0_04____
  6
CONTINUOUS
 62
    2
 10
1168.6224406474348
 20
468.26649500872634
 11
1168.5931190284523
 21
468.24279645971347
  0
LINE
  8
_0-1_0_04____
  6
CONTINUOUS
 62
    2
 10
1168.5931190284523
 20
468.24279645971347
 11
1168.5628323941619
 21
468.22029490084265
  0
LINE
  8
_0-1_0_04____
  6
CONTINUOUS
 62
    2
 10
1168.5628323941619
 20
468.22029490084265
 11
1168.5317292084565
 21
468.19899497161043
  0
LINE
  8
_0-1_0_04____
  6
CONTINUOUS
 62
    2
 10
1168.5317292084565
 20
468.19899497161043
 11
1168.4997352393898
 21
468.17889667201683
  0
LINE
  8
_0-1_0_04____
  6
CONTINUOUS
 62
    2
 10
1168.4997352393898
 20
468.17889667201683
 11
1168.4670360668283
 21
468.16009511174383
  0
LINE
  8
_0-1_0_04____
  6
CONTINUOUS
 62
    2
 10
1168.4670360668283
 20
468.16009511174383
 11
1168.4336316907729
 21
468.1424951811095
  0
LINE
  8
_0-1_0_04____
  6
CONTINUOUS
 62
    2
 10
1168.4336316907729
 20
468.1424951811095
 11
1168.3995221112225
 21
468.12629637847078
  0
LINE
  8
_0-1_0_04____
  6
CONTINUOUS
 62
    2
 10
1168.3995221112225
 20
468.12629637847078
 11
1168.3648186760981
 21
468.11149638407937
  0
LINE
  8
_0-1_0_04____
  6
CONTINUOUS
 62
    2
 10
1168.3648186760981
 20
468.11149638407937
 11
1168.3296327333194
 21
468.09799544875688
  0
LINE
  8
_0-1_0_04____
  6
CONTINUOUS
 62
    2
 10
1168.3296327333194
 20
468.09799544875688
 11
1168.2938529349663
 21
468.08599539060845
  0
LINE
  8
_0-1_0_04____
  6
CONTINUOUS
 62
    2
 10
1168.2938529349663
 20
468.08599539060845
 11
1168.2576277449325
 21
468.0752967112773
  0
LINE
  8
_0-1_0_04____
  6
CONTINUOUS
 62
    2
 10
1168.2576277449325
 20
468.0752967112773
 11
1168.2210313951646
 21
468.06609658937202
  0
LINE
  8
_0-1_0_04____
  6
CONTINUOUS
 62
    2
 10
1168.2210313951646
 20
468.06609658937202
 11
1168.1841381176096
 21
468.05829527571399
  0
LINE
  8
_0-1_0_04____
  6
CONTINUOUS
 62
    2
 10
1168.1841381176096
 20
468.05829527571399
 11
1168.1469479122679
 21
468.05189509005163
  0
LINE
  8
_0-1_0_04____
  6
CONTINUOUS
 62
    2
 10
1168.1469479122679
 20
468.05189509005163
 11
1168.1095350110854
 21
468.04709553074196
  0
LINE
  8
_0-1_0_04____
  6
CONTINUOUS
 62
    2
 10
1168.1095350110854
 20
468.04709553074196
 11
1168.0719365300361
 21
468.04369709942796
  0
LINE
  8
_0-1_0_04____
  6
CONTINUOUS
 62
    2
 10
1168.0719365300361
 20
468.04369709942796
 11
1168.0342267010662
 21
468.04179490579145
  0
LINE
  8
_0-1_0_04____
  6
CONTINUOUS
 62
    2
 10
1168.0342267010662
 20
468.04179490579145
 11
1167.99655398807
 21
468.04129615989893
  0
LINE
  8
_0-1_0_04____
  6
CONTINUOUS
 62
    2
 10
1167.99655398807
 20
468.04129615989893
 11
1167.9588441591006
 21
468.04239572061078
  0
LINE
  8
_0-1_0_04____
  6
CONTINUOUS
 62
    2
 10
1167.9588441591006
 20
468.04239572061078
 11
1167.9211343301308
 21
468.04489640931831
  0
LINE
  8
_0-1_0_04____
  6
CONTINUOUS
 62
    2
 10
1167.9211343301308
 20
468.04489640931831
 11
1167.8836471970017
 21
468.04889565545159
  0
LINE
  8
_0-1_0_04____
  6
CONTINUOUS
 62
    2
 10
1167.8836471970017
 20
468.04889565545159
 11
1167.8463456437394
 21
468.0543957787591
  0
LINE
  8
_0-1_0_04____
  6
CONTINUOUS
 62
    2
 10
1167.8463456437394
 20
468.0543957787591
 11
1167.8092296703439
 21
468.06129703006229
  0
LINE
  8
_0-1_0_04____
  6
CONTINUOUS
 62
    2
 10
1167.8092296703439
 20
468.06129703006229
 11
1167.7724477407094
 21
468.06969683879129
  0
LINE
  8
_0-1_0_04____
  6
CONTINUOUS
 62
    2
 10
1167.7724477407094
 20
468.06969683879129
 11
1167.7360369708088
 21
468.0794954557677
  0
LINE
  8
_0-1_0_04____
  6
CONTINUOUS
 62
    2
 10
1167.7360369708088
 20
468.0794954557677
 11
1167.699923128695
 21
468.09069520073967
  0
LINE
  8
_0-1_0_04____
  6
CONTINUOUS
 62
    2
 10
1167.699923128695
 20
468.09069520073967
 11
1167.6644402581294
 21
468.10339582288589
  0
LINE
  8
_0-1_0_04____
  6
CONTINUOUS
 62
    2
 10
1167.6644402581294
 20
468.10339582288589
 11
1167.6294398952175
 21
468.1173955041009
  0
LINE
  8
_0-1_0_04____
  6
CONTINUOUS
 62
    2
 10
1167.6294398952175
 20
468.1173955041009
 11
1167.59492203996
 21
468.13279631331164
  0
LINE
  8
_0-1_0_04____
  6
CONTINUOUS
 62
    2
 10
1167.59492203996
 20
468.13279631331164
 11
1167.5611465041702
 21
468.14959593076958
  0
LINE
  8
_0-1_0_04____
  6
CONTINUOUS
 62
    2
 10
1167.5611465041702
 20
468.14959593076958
 11
1167.5280390559014
 21
468.16759485811804
  0
LINE
  8
_0-1_0_04____
  6
CONTINUOUS
 62
    2
 10
1167.5280390559014
 20
468.16759485811804
 11
1167.4956368111275
 21
468.18699491346206
  0
LINE
  8
_0-1_0_04____
  6
CONTINUOUS
 62
    2
 10
1167.4956368111275
 20
468.18699491346206
 11
1167.4639397698481
 21
468.20759659844475
  0
LINE
  8
_0-1_0_04____
  6
CONTINUOUS
 62
    2
 10
1167.4639397698481
 20
468.20759659844475
 11
1167.43324485985
 21
468.22939527356948
  0
LINE
  8
_0-1_0_04____
  6
CONTINUOUS
 62
    2
 10
1167.43324485985
 20
468.22939527356948
 11
1167.4033293852935
 21
468.25239557833288
  0
LINE
  8
_0-1_0_04____
  6
CONTINUOUS
 62
    2
 10
1167.4033293852935
 20
468.25239557833288
 11
1167.3743418100719
 21
468.27659519298663
  0
LINE
  8
_0-1_0_04____
  6
CONTINUOUS
 62
    2
 10
1167.3743418100719
 20
468.27659519298663
 11
1167.3463192501586
 21
468.30189668810044
  0
LINE
  8
_0-1_0_04____
  6
CONTINUOUS
 62
    2
 10
1167.3463192501586
 20
468.30189668810044
 11
1167.3193359375
 21
468.32829542417778
  0
LINE
  8
_0-1_0_04____
  6
CONTINUOUS
 62
    2
 10
1167.3193359375
 20
468.32829542417778
 11
1167.29342898807
 21
468.3556962915369
  0
LINE
  8
_0-1_0_04____
  6
CONTINUOUS
 62
    2
 10
1167.29342898807
 20
468.3556962915369
 11
1167.2685241699219
 21
468.38409697042925
  0
LINE
  8
_0-1_0_04____
  6
CONTINUOUS
 62
    2
 10
1167.2685241699219
 20
468.38409697042925
 11
1167.2448441788956
 21
468.41339539192813
  0
LINE
  8
_0-1_0_04____
  6
CONTINUOUS
 62
    2
 10
1167.2448441788956
 20
468.41339539192813
 11
1167.2223518990181
 21
468.44369594470868
  0
LINE
  8
_0-1_0_04____
  6
CONTINUOUS
 62
    2
 10
1167.2223518990181
 20
468.44369594470868
 11
1167.2010473302894
 21
468.47479681066562
  0
LINE
  8
_0-1_0_04____
  6
CONTINUOUS
 62
    2
 10
1167.2010473302894
 20
468.47479681066562
 11
1167.180930472709
 21
468.50679541922909
  0
LINE
  8
_0-1_0_04____
  6
CONTINUOUS
 62
    2
 10
1167.180930472709
 20
468.50679541922909
 11
1167.162149790171
 21
468.53949691153866
  0
LINE
  8
_0-1_0_04____
  6
CONTINUOUS
 62
    2
 10
1167.162149790171
 20
468.53949691153866
 11
1167.1445197028083
 21
468.5728966480977
  0
LINE
  8
_0-1_0_04____
  6
CONTINUOUS
 62
    2
 10
1167.1445197028083
 20
468.5728966480977
 11
1167.1283371384079
 21
468.60699694865457
  0
LINE
  8
_0-1_0_04____
  6
CONTINUOUS
 62
    2
 10
1167.1283371384079
 20
468.60699694865457
 11
1167.1135278650231
 21
468.64169574428246
  0
LINE
  8
_0-1_0_04____
  6
CONTINUOUS
 62
    2
 10
1167.1135278650231
 20
468.64169574428246
 11
1167.1000176507075
 21
468.67689560555118
  0
LINE
  8
_0-1_0_04____
  6
CONTINUOUS
 62
    2
 10
1167.1000176507075
 20
468.67689560555118
 11
1167.0880291913006
 21
468.7126962816393
  0
LINE
  8
_0-1_0_04____
  6
CONTINUOUS
 62
    2
 10
1167.0880291913006
 20
468.7126962816393
 11
1167.0773397909629
 21
468.74889595444137
  0
LINE
  8
_0-1_0_04____
  6
CONTINUOUS
 62
    2
 10
1167.0773397909629
 20
468.74889595444137
 11
1167.0681350295608
 21
468.78549694370582
  0
LINE
  8
_0-1_0_04____
  6
CONTINUOUS
 62
    2
 10
1167.0681350295608
 20
468.78549694370582
 11
1167.0603406751479
 21
468.82239486075741
  0
LINE
  8
_0-1_0_04____
  6
CONTINUOUS
 62
    2
 10
1167.0603406751479
 20
468.82239486075741
 11
1167.0539196117502
 21
468.85959666484109
  0
LINE
  8
_0-1_0_04____
  6
CONTINUOUS
 62
    2
 10
1167.0539196117502
 20
468.85959666484109
 11
1167.0491316511825
 21
468.89699564753352
  0
LINE
  8
_0-1_0_04____
  6
CONTINUOUS
 62
    2
 10
1167.0491316511825
 20
468.89699564753352
 11
1167.0457540976035
 21
468.93459644833126
  0
LINE
  8
_0-1_0_04____
  6
CONTINUOUS
 62
    2
 10
1167.0457540976035
 20
468.93459644833126
 11
1167.0446406184014
 21
468.95179506250332
  0
LINE
  8
_0-1_0_04____
  6
CONTINUOUS
 62
    2
 10
1167.0446406184014
 20
468.95179506250332
 11
1167.0444179225613
 21
470.56189526738348
  0
LINE
  8
_0-1_0_04____
  6
CONTINUOUS
 62
    2
 10
1167.0444179225613
 20
470.56189526738348
 11
1160.8851334855362
 21
470.56189526738348
  0
LINE
  8
_0-1_0_04____
  6
CONTINUOUS
 62
    2
 10
1160.8851334855362
 20
470.56189526738348
 11
1160.8851334855362
 21
466.79859537691686
  0
LINE
  8
_0-1_0_04____
  6
CONTINUOUS
 62
    2
 10
1160.8851334855362
 20
466.79859537691686
 11
1161.1135451858108
 21
466.53229522705078
  0
LINE
  8
_0-1_0_04____
  6
CONTINUOUS
 62
    2
 10
1161.1135451858108
 20
466.53229522705078
 11
1161.3520524308487
 21
466.27509544991153
  0
LINE
  8
_0-1_0_04____
  6
CONTINUOUS
 62
    2
 10
1161.3520524308487
 20
466.27509544991153
 11
1161.6005438727302
 21
466.02749711114006
  0
LINE
  8
_0-1_0_04____
  6
CONTINUOUS
 62
    2
 10
1161.6005438727302
 20
466.02749711114006
 11
1161.8584256558806
 21
465.78969506959663
  0
LINE
  8
_0-1_0_04____
  6
CONTINUOUS
 62
    2
 10
1161.8584256558806
 20
465.78969506959663
 11
1162.1253266205658
 21
465.56209528124009
  0
LINE
  8
_0-1_0_04____
  6
CONTINUOUS
 62
    2
 10
1162.1253266205658
 20
465.56209528124009
 11
1162.4010240709458
 21
465.34509674278468
  0
LINE
  8
_0-1_0_04____
  6
CONTINUOUS
 62
    2
 10
1162.4010240709458
 20
465.34509674278468
 11
1162.6849241514462
 21
465.13909613119586
  0
LINE
  8
_0-1_0_04____
  6
CONTINUOUS
 62
    2
 10
1162.6849241514462
 20
465.13909613119586
 11
1162.97672993428
 21
464.94429642445334
  0
LINE
  8
_0-1_0_04____
  6
CONTINUOUS
 62
    2
 10
1162.97672993428
 20
464.94429642445334
 11
1163.2758475638725
 21
464.76099571021825
  0
LINE
  8
_0-1_0_04____
  6
CONTINUOUS
 62
    2
 10
1163.2758475638725
 20
464.76099571021825
 11
1163.5818316485431
 21
464.58949555577459
  0
LINE
  8
_0-1_0_04____
  6
CONTINUOUS
 62
    2
 10
1163.5818316485431
 20
464.58949555577459
 11
1163.8943481445312
 21
464.43009636853196
  0
LINE
  8
_0-1_0_04____
  6
CONTINUOUS
 62
    2
 10
1163.8943481445312
 20
464.43009636853196
 11
1164.212840312236
 21
464.2829964869731
  0
LINE
  8
_0-1_0_04____
  6
CONTINUOUS
 62
    2
 10
1164.212840312236
 20
464.2829964869731
 11
1164.5368256440033
 21
464.14849631850785
  0
LINE
  8
_0-1_0_04____
  6
CONTINUOUS
 62
    2
 10
1164.5368256440033
 20
464.14849631850785
 11
1164.8657474002321
 21
464.0266956123146
  0
LINE
  8
_0-1_0_04____
  6
CONTINUOUS
 62
    2
 10
1164.8657474002321
 20
464.0266956123146
 11
1165.1992344211887
 21
463.91779618649866
  0
LINE
  8
_0-1_0_04____
  6
CONTINUOUS
 62
    2
 10
1165.1992344211887
 20
463.91779618649866
 11
1165.5367299672719
 21
463.82199637954301
  0
LINE
  8
_0-1_0_04____
  6
CONTINUOUS
 62
    2
 10
1165.5367299672719
 20
463.82199637954301
 11
1165.8776401829075
 21
463.73949568980447
  0
LINE
  8
_0-1_0_04____
  6
CONTINUOUS
 62
    2
 10
1165.8776401829075
 20
463.73949568980447
 11
1166.2215196764146
 21
463.67029643703148
  0
LINE
  8
_0-1_0_04____
  6
CONTINUOUS
 62
    2
 10
1166.2215196764146
 20
463.67029643703148
 11
1166.5679230561127
 21
463.61459579983273
  0
LINE
  8
_0-1_0_04____
  6
CONTINUOUS
 62
    2
 10
1166.5679230561127
 20
463.61459579983273
 11
1166.916219350454
 21
463.57239609795647
  0
LINE
  8
_0-1_0_04____
  6
CONTINUOUS
 62
    2
 10
1166.916219350454
 20
463.57239609795647
 11
1167.2658518198375
 21
463.54389566988561
  0
LINE
  8
_0-1_0_04____
  6
CONTINUOUS
 62
    2
 10
1167.2658518198375
 20
463.54389566988561
 11
1167.6163379566092
 21
463.5289959263157
  0
LINE
  8
_0-1_0_04____
  6
CONTINUOUS
 62
    2
 10
1167.6163379566092
 20
463.5289959263157
 11
1167.9671210211677
 21
463.52789636560391
  0
LINE
  8
_0-1_0_04____
  6
CONTINUOUS
 62
    2
 10
1167.9671210211677
 20
463.52789636560391
 11
1168.3177185058594
 21
463.5403963295189
  0
LINE
  8
_0-1_0_04____
  6
CONTINUOUS
 62
    2
 10
1168.3177185058594
 20
463.5403963295189
 11
1168.6675365551096
 21
463.56649581806073
  0
LINE
  8
_0-1_0_04____
  6
CONTINUOUS
 62
    2
 10
1168.6675365551096
 20
463.56649581806073
 11
1169.0160184293181
 21
463.60629574028223
  0
LINE
  8
_0-1_0_04____
  6
CONTINUOUS
 62
    2
 10
1169.0160184293181
 20
463.60629574028223
 11
1169.3627187368031
 21
463.65969634700463
  0
LINE
  8
_0-1_0_04____
  6
CONTINUOUS
 62
    2
 10
1169.3627187368031
 20
463.65969634700463
 11
1169.7071178539377
 21
463.72659556930131
  0
LINE
  8
_0-1_0_04____
  6
CONTINUOUS
 62
    2
 10
1169.7071178539377
 20
463.72659556930131
 11
1170.0486219251479
 21
463.80679622856348
  0
LINE
  8
_0-1_0_04____
  6
CONTINUOUS
 62
    2
 10
1170.0486219251479
 20
463.80679622856348
 11
1170.3867484427788
 21
463.90029600504283
  0
LINE
  8
_0-1_0_04____
  6
CONTINUOUS
 62
    2
 10
1170.3867484427788
 20
463.90029600504283
 11
1170.7209406672296
 21
464.00689656025656
  0
LINE
  8
_0-1_0_04____
  6
CONTINUOUS
 62
    2
 10
1170.7209406672296
 20
464.00689656025656
 11
1171.05075320682
 21
464.12649582527774
  0
LINE
  8
_0-1_0_04____
  6
CONTINUOUS
 62
    2
 10
1171.05075320682
 20
464.12649582527774
 11
1171.375629321949
 21
464.25889546162375
  0
LINE
  8
_0-1_0_04____
  6
CONTINUOUS
 62
    2
 10
1171.375629321949
 20
464.25889546162375
 11
1171.6951236209352
 21
464.40379622175891
  0
LINE
  8
_0-1_0_04____
  6
CONTINUOUS
 62
    2
 10
1171.6951236209352
 20
464.40379622175891
 11
1172.0086422482054
 21
464.56109603675634
  0
LINE
  8
_0-1_0_04____
  6
CONTINUOUS
 62
    2
 10
1172.0086422482054
 20
464.56109603675634
 11
1172.3158511599977
 21
464.7304956590807
  0
LINE
  8
_0-1_0_04____
  6
CONTINUOUS
 62
    2
 10
1172.3158511599977
 20
464.7304956590807
 11
1172.6162307326858
 21
464.91179559037488
  0
LINE
  8
_0-1_0_04____
  6
CONTINUOUS
 62
    2
 10
1172.6162307326858
 20
464.91179559037488
 11
1172.9092242266681
 21
465.10459683392503
  0
LINE
  8
_0-1_0_04____
  6
CONTINUOUS
 62
    2
 10
1172.9092242266681
 20
465.10459683392503
 11
1173.1945347141575
 21
465.30869525187723
  0
LINE
  8
_0-1_0_04____
  6
CONTINUOUS
 62
    2
 10
1173.1945347141575
 20
465.30869525187723
 11
1173.4716425715264
 21
465.52379623619288
  0
LINE
  8
_0-1_0_04____
  6
CONTINUOUS
 62
    2
 10
1173.4716425715264
 20
465.52379623619288
 11
1173.7401395230681
 21
465.74959589983962
  0
LINE
  8
_0-1_0_04____
  6
CONTINUOUS
 62
    2
 10
1173.7401395230681
 20
465.74959589983962
 11
1173.9996544090477
 21
465.98559549692516
  0
LINE
  8
_0-1_0_04____
  6
CONTINUOUS
 62
    2
 10
1173.9996544090477
 20
465.98559549692516
 11
1174.249741837785
 21
466.23159552909237
  0
LINE
  8
_0-1_0_04____
  6
CONTINUOUS
 62
    2
 10
1174.249741837785
 20
466.23159552909237
 11
1174.490030649546
 21
466.48719699962726
  0
LINE
  8
_0-1_0_04____
  6
CONTINUOUS
 62
    2
 10
1174.490030649546
 20
466.48719699962726
 11
1174.7202239165435
 21
466.7519962723191
  0
LINE
  8
_0-1_0_04____
  6
CONTINUOUS
 62
    2
 10
1174.7202239165435
 20
466.7519962723191
 11
1174.9398391311233
 21
467.02549692102383
  0
LINE
  8
_0-1_0_04____
  6
CONTINUOUS
 62
    2
 10
1174.9398391311233
 20
467.02549692102383
 11
1175.132953540699
 21
467.28529713604905
  0
LINE
  8
_0-1_0_04____
  6
CONTINUOUS
 62
    2
 10
1175.132953540699
 20
467.28529713604905
 11
1175.1234518515098
 21
467.27209544826195
  0
LINE
  8
_0-1_0_04____
  6
CONTINUOUS
 62
    2
 10
1175.1234518515098
 20
467.27209544826195
 11
1175.1234518515098
 21
472.06619639010046
  0
LINE
  8
_0-1_0_04____
  6
CONTINUOUS
 62
    2
 10
1175.1234518515098
 20
472.06619639010046
 11
1175.0600206529771
 21
472.30539492014293
  0
LINE
  8
_0-1_0_04____
  6
CONTINUOUS
 62
    2
 10
1175.0600206529771
 20
472.30539492014293
 11
1174.9874218090158
 21
472.54189558286919
  0
LINE
  8
_0-1_0_04____
  6
CONTINUOUS
 62
    2
 10
1174.9874218090158
 20
472.54189558286919
 11
1174.9055439717058
 21
472.77539681099552
  0
LINE
  8
_0-1_0_04____
  6
CONTINUOUS
 62
    2
 10
1174.9055439717058
 20
472.77539681099552
 11
1174.814646952861
 21
473.00549496831121
  0
LINE
  8
_0-1_0_04____
  6
CONTINUOUS
 62
    2
 10
1174.814646952861
 20
473.00549496831121
 11
1174.7149534483212
 21
473.23189544677734
  0
LINE
  8
_0-1_0_04____
  6
CONTINUOUS
 62
    2
 10
1174.7149534483212
 20
473.23189544677734
 11
1174.6063521101669
 21
473.45429667911014
  0
LINE
  8
_0-1_0_04____
  6
CONTINUOUS
 62
    2
 10
1174.6063521101669
 20
473.45429667911014
 11
1174.4892512141046
 21
473.6721952799204
  0
LINE
  8
_0-1_0_04____
  6
CONTINUOUS
 62
    2
 10
1174.4892512141046
 20
473.6721952799204
 11
1174.363650760135
 21
473.88539639034786
  0
LINE
  8
_0-1_0_04____
  6
CONTINUOUS
 62
    2
 10
1174.363650760135
 20
473.88539639034786
 11
1174.2298476760452
 21
474.09349637418177
  0
LINE
  8
_0-1_0_04____
  6
CONTINUOUS
 62
    2
 10
1174.2298476760452
 20
474.09349637418177
 11
1174.0880275417019
 21
474.29629573306522
  0
LINE
  8
_0-1_0_04____
  6
CONTINUOUS
 62
    2
 10
1174.0880275417019
 20
474.29629573306522
 11
1173.9384501689192
 21
474.4933954702841
  0
LINE
  8
_0-1_0_04____
  6
CONTINUOUS
 62
    2
 10
1173.9384501689192
 20
474.4933954702841
 11
1173.7812269056167
 21
474.68449633830301
  0
LINE
  8
_0-1_0_04____
  6
CONTINUOUS
 62
    2
 10
1173.7812269056167
 20
474.68449633830301
 11
1173.6167289115288
 21
474.86929676983812
  0
LINE
  8
_0-1_0_04____
  6
CONTINUOUS
 62
    2
 10
1173.6167289115288
 20
474.86929676983812
 11
1173.4451417665225
 21
475.04749519760543
  0
LINE
  8
_0-1_0_04____
  6
CONTINUOUS
 62
    2
 10
1173.4451417665225
 20
475.04749519760543
 11
1173.2667252824112
 21
475.21889676274481
  0
LINE
  8
_0-1_0_04____
  6
CONTINUOUS
 62
    2
 10
1173.2667252824112
 20
475.21889676274481
 11
1173.0817392710094
 21
475.38319525847567
  0
LINE
  8
_0-1_0_04____
  6
CONTINUOUS
 62
    2
 10
1173.0817392710094
 20
475.38319525847567
 11
1172.8905177760769
 21
475.54019582593764
  0
LINE
  8
_0-1_0_04____
  6
CONTINUOUS
 62
    2
 10
1172.8905177760769
 20
475.54019582593764
 11
1172.6933206094277
 21
475.68959689784691
  0
LINE
  8
_0-1_0_04____
  6
CONTINUOUS
 62
    2
 10
1172.6933206094277
 20
475.68959689784691
 11
1172.4904446988494
 21
475.8311966560982
  0
LINE
  8
_0-1_0_04____
  6
CONTINUOUS
 62
    2
 10
1172.4904446988494
 20
475.8311966560982
 11
1172.282149856155
 21
475.96479560233456
  0
LINE
  8
_0-1_0_04____
  6
CONTINUOUS
 62
    2
 10
1172.282149856155
 20
475.96479560233456
 11
1172.0688443570525
 21
476.09009680876864
  0
LINE
  8
_0-1_0_04____
  6
CONTINUOUS
 62
    2
 10
1172.0688443570525
 20
476.09009680876864
 11
1171.8507508973819
 21
476.20699588672528
  0
LINE
  8
_0-1_0_04____
  6
CONTINUOUS
 62
    2
 10
1171.8507508973819
 20
476.20699588672528
 11
1171.6282406368773
 21
476.31539540677454
  0
LINE
  8
_0-1_0_04____
  6
CONTINUOUS
 62
    2
 10
1171.6282406368773
 20
476.31539540677454
 11
1171.4017218512458
 21
476.41489637220229
  0
LINE
  8
_0-1_0_04____
  6
CONTINUOUS
 62
    2
 10
1171.4017218512458
 20
476.41489637220229
 11
1171.1715285842483
 21
476.5055962124386
  0
LINE
  8
_0-1_0_04____
  6
CONTINUOUS
 62
    2
 10
1171.1715285842483
 20
476.5055962124386
 11
1170.9379206476983
 21
476.58719567994819
  0
LINE
  8
_0-1_0_04____
  6
CONTINUOUS
 62
    2
 10
1170.9379206476983
 20
476.58719567994819
 11
1170.7014176652237
 21
476.65959502555233
  0
LINE
  8
_0-1_0_04____
  6
CONTINUOUS
 62
    2
 10
1170.7014176652237
 20
476.65959502555233
 11
1170.4621309847444
 21
476.7226968198209
  0
LINE
  8
_0-1_0_04____
  6
CONTINUOUS
 62
    2
 10
1170.4621309847444
 20
476.7226968198209
 11
1170.220654461835
 21
476.77649642325741
  0
LINE
  8
_0-1_0_04____
  6
CONTINUOUS
 62
    2
 10
1170.220654461835
 20
476.77649642325741
 11
1169.9772479083088
 21
476.82079665725297
  0
LINE
  8
_0-1_0_04____
  6
CONTINUOUS
 62
    2
 10
1169.9772479083088
 20
476.82079665725297
 11
1169.7322453679267
 21
476.85549545288086
  0
LINE
  8
_0-1_0_04____
  6
CONTINUOUS
 62
    2
 10
1169.7322453679267
 20
476.85549545288086
 11
1169.4861293483425
 21
476.88069487906796
  0
LINE
  8
_0-1_0_04____
  6
CONTINUOUS
 62
    2
 10
1169.4861293483425
 20
476.88069487906796
 11
1169.2392338933173
 21
476.8962951866356
  0
LINE
  8
_0-1_0_04____
  6
CONTINUOUS
 62
    2
 10
1169.2392338933173
 20
476.8962951866356
 11
1168.9918188146644
 21
476.9021966264055
  0
LINE
  8
_0-1_0_04____
  6
CONTINUOUS
 62
    2
 10
1168.9918188146644
 20
476.9021966264055
 11
1168.9655407055002
 21
476.90229637558394
  0
LINE
  8
_0-1_0_04____
  6
CONTINUOUS
 62
    2
 10
1168.9655407055002
 20
476.90229637558394
 11
1168.886446566195
 21
476.89729499816895
  0
LINE
  8
_0-1_0_04____
  6
CONTINUOUS
 62
    2
 10
1168.886446566195
 20
476.89729499816895
 11
1168.8072410789696
 21
476.89529537510231
  0
LINE
  8
_0-1_0_04____
  6
CONTINUOUS
 62
    2
 10
1168.8072410789696
 20
476.89529537510231
 11
1168.727924243824
 21
476.8963949358141
  0
LINE
  8
_0-1_0_04____
  6
CONTINUOUS
 62
    2
 10
1168.727924243824
 20
476.8963949358141
 11
1168.6488301045183
 21
476.90069574923132
  0
LINE
  8
_0-1_0_04____
  6
CONTINUOUS
 62
    2
 10
1168.6488301045183
 20
476.90069574923132
 11
1168.5698473131333
 21
476.90799599724846
  0
LINE
  8
_0-1_0_04____
  6
CONTINUOUS
 62
    2
 10
1168.5698473131333
 20
476.90799599724846
 11
1168.4912356814821
 21
476.91849517822266
  0
LINE
  8
_0-1_0_04____
  6
CONTINUOUS
 62
    2
 10
1168.4912356814821
 20
476.91849517822266
 11
1168.4131436734588
 21
476.93199611354515
  0
LINE
  8
_0-1_0_04____
  6
CONTINUOUS
 62
    2
 10
1168.4131436734588
 20
476.93199611354515
 11
1168.3356455210094
 21
476.94859623264625
  0
LINE
  8
_0-1_0_04____
  6
CONTINUOUS
 62
    2
 10
1168.3356455210094
 20
476.94859623264625
 11
1168.2588525720544
 21
476.96819578634722
  0
LINE
  8
_0-1_0_04____
  6
CONTINUOUS
 62
    2
 10
1168.2588525720544
 20
476.96819578634722
 11
1168.182839058541
 21
476.99079709439661
  0
LINE
  8
_0-1_0_04____
  6
CONTINUOUS
 62
    2
 10
1168.182839058541
 20
476.99079709439661
 11
1168.1078276763092
 21
477.01639551729772
  0
LINE
  8
_0-1_0_04____
  6
CONTINUOUS
 62
    2
 10
1168.1078276763092
 20
477.01639551729772
 11
1168.0338184253592
 21
477.04489594536858
  0
LINE
  8
_0-1_0_04____
  6
CONTINUOUS
 62
    2
 10
1168.0338184253592
 20
477.04489594536858
 11
1167.9610340015311
 21
477.07629605886098
  0
LINE
  8
_0-1_0_04____
  6
CONTINUOUS
 62
    2
 10
1167.9610340015311
 20
477.07629605886098
 11
1167.8895486367715
 21
477.11049610859641
  0
LINE
  8
_0-1_0_04____
  6
CONTINUOUS
 62
    2
 10
1167.8895486367715
 20
477.11049610859641
 11
1167.8194365630279
 21
477.14749609457476
  0
LINE
  8
_0-1_0_04____
  6
CONTINUOUS
 62
    2
 10
1167.8194365630279
 20
477.14749609457476
 11
1167.7508462441933
 21
477.18719626761776
  0
LINE
  8
_0-1_0_04____
  6
CONTINUOUS
 62
    2
 10
1167.7508462441933
 20
477.18719626761776
 11
1167.683851912215
 21
477.22959662772519
  0
LINE
  8
_0-1_0_04____
  6
CONTINUOUS
 62
    2
 10
1167.683851912215
 20
477.22959662772519
 11
1167.6185277990394
 21
477.27459510597021
  0
LINE
  8
_0-1_0_04____
  6
CONTINUOUS
 62
    2
 10
1167.6185277990394
 20
477.27459510597021
 11
1167.5551337164802
 21
477.32209659267113
  0
LINE
  8
_0-1_0_04____
  6
CONTINUOUS
 62
    2
 10
1167.5551337164802
 20
477.32209659267113
 11
1167.493521200644
 21
477.37209644833126
  0
LINE
  8
_0-1_0_04____
  6
CONTINUOUS
 62
    2
 10
1167.493521200644
 20
477.37209644833126
 11
1167.4340242952912
 21
477.42439517459354
  0
LINE
  8
_0-1_0_04____
  6
CONTINUOUS
 62
    2
 10
1167.4340242952912
 20
477.42439517459354
 11
1167.3766430004221
 21
477.47909484038485
  0
LINE
  8
_0-1_0_04____
  6
CONTINUOUS
 62
    2
 10
1167.3766430004221
 20
477.47909484038485
 11
1167.3213402000633
 21
477.53589619816961
  0
LINE
  8
_0-1_0_04____
  6
CONTINUOUS
 62
    2
 10
1167.3213402000633
 20
477.53589619816961
 11
1167.268338590055
 21
477.59489667737807
  0
LINE
  8
_0-1_0_04____
  6
CONTINUOUS
 62
    2
 10
1167.268338590055
 20
477.59489667737807
 11
1167.2177495183173
 21
477.65589677965318
  0
LINE
  8
_0-1_0_04____
  6
CONTINUOUS
 62
    2
 10
1167.2177495183173
 20
477.65589677965318
 11
1167.1696472167969
 21
477.71889650499497
  0
LINE
  8
_0-1_0_04____
  6
CONTINUOUS
 62
    2
 10
1167.1696472167969
 20
477.71889650499497
 11
1167.123920337574
 21
477.78369635504646
  0
LINE
  8
_0-1_0_04____
  6
CONTINUOUS
 62
    2
 10
1167.123920337574
 20
477.78369635504646
 11
1167.0808286924619
 21
477.85019658062913
  0
LINE
  8
_0-1_0_04____
  6
CONTINUOUS
 62
    2
 10
1167.0808286924619
 20
477.85019658062913
 11
1167.0439354149071
 21
477.91209674525902
  0
LINE
  8
_0-1_0_04____
  6
CONTINUOUS
 62
    2
 10
1167.0439354149071
 20
477.91209674525902
 11
1167.0444179225613
 21
477.91129643208274
  0
LINE
  8
_0-1_0_04____
  6
CONTINUOUS
 62
    2
 10
1167.0444179225613
 20
477.91129643208274
 11
1167.0444179225613
 21
479.76049541782692
  0
LINE
  8
_0-1_0_04____
  6
CONTINUOUS
 62
    2
 10
1167.0444179225613
 20
479.76049541782692
 11
1167.0475356643265
 21
479.79819596780317
  0
LINE
  8
_0-1_0_04____
  6
CONTINUOUS
 62
    2
 10
1167.0475356643265
 20
479.79819596780317
 11
1167.0522493929475
 21
479.83569701942235
  0
LINE
  8
_0-1_0_04____
  6
CONTINUOUS
 62
    2
 10
1167.0522493929475
 20
479.83569701942235
 11
1167.0583364125844
 21
479.87289650375777
  0
LINE
  8
_0-1_0_04____
  6
CONTINUOUS
 62
    2
 10
1167.0583364125844
 20
479.87289650375777
 11
1167.0658338392104
 21
479.90989648973618
  0
LINE
  8
_0-1_0_04____
  6
CONTINUOUS
 62
    2
 10
1167.0658338392104
 20
479.90989648973618
 11
1167.0748530207452
 21
479.94659490843071
  0
LINE
  8
_0-1_0_04____
  6
CONTINUOUS
 62
    2
 10
1167.0748530207452
 20
479.94659490843071
 11
1167.085245493296
 21
479.98289665015966
  0
LINE
  8
_0-1_0_04____
  6
CONTINUOUS
 62
    2
 10
1167.085245493296
 20
479.98289665015966
 11
1167.0971226047825
 21
480.01879707542628
  0
LINE
  8
_0-1_0_04____
  6
CONTINUOUS
 62
    2
 10
1167.0971226047825
 20
480.01879707542628
 11
1167.1103358913113
 21
480.05409668587345
  0
LINE
  8
_0-1_0_04____
  6
CONTINUOUS
 62
    2
 10
1167.1103358913113
 20
480.05409668587345
 11
1167.1250338167756
 21
480.0889949798584
  0
LINE
  8
_0-1_0_04____
  6
CONTINUOUS
 62
    2
 10
1167.1250338167756
 20
480.0889949798584
 11
1167.1410308013092
 21
480.12319502959383
  0
LINE
  8
_0-1_0_04____
  6
CONTINUOUS
 62
    2
 10
1167.1410308013092
 20
480.12319502959383
 11
1167.1583268449112
 21
480.15679658425825
  0
LINE
  8
_0-1_0_04____
  6
CONTINUOUS
 62
    2
 10
1167.1583268449112
 20
480.15679658425825
 11
1167.1769219475825
 21
480.189595505998
  0
LINE
  8
_0-1_0_04____
  6
CONTINUOUS
 62
    2
 10
1167.1769219475825
 20
480.189595505998
 11
1167.1968532252956
 21
480.22169618348823
  0
LINE
  8
_0-1_0_04____
  6
CONTINUOUS
 62
    2
 10
1167.1968532252956
 20
480.22169618348823
 11
1167.2179350981842
 21
480.25299654780207
  0
LINE
  8
_0-1_0_04____
  6
CONTINUOUS
 62
    2
 10
1167.2179350981842
 20
480.25299654780207
 11
1167.240353146115
 21
480.28349659893968
  0
LINE
  8
_0-1_0_04____
  6
CONTINUOUS
 62
    2
 10
1167.240353146115
 20
480.28349659893968
 11
1167.2638475572739
 21
480.31299683854382
  0
LINE
  8
_0-1_0_04____
  6
CONTINUOUS
 62
    2
 10
1167.2638475572739
 20
480.31299683854382
 11
1167.2885296795819
 21
480.34159701579324
  0
LINE
  8
_0-1_0_04____
  6
CONTINUOUS
 62
    2
 10
1167.2885296795819
 20
480.34159701579324
 11
1167.3143252810914
 21
480.36919506176105
  0
LINE
  8
_0-1_0_04____
  6
CONTINUOUS
 62
    2
 10
1167.3143252810914
 20
480.36919506176105
 11
1167.3411230138831
 21
480.39579561594371
  0
LINE
  8
_0-1_0_04____
  6
CONTINUOUS
 62
    2
 10
1167.3411230138831
 20
480.39579561594371
 11
1167.3690342258762
 21
480.42129660941464
  0
LINE
  8
_0-1_0_04____
  6
CONTINUOUS
 62
    2
 10
1167.3690342258762
 20
480.42129660941464
 11
1167.397836221231
 21
480.44569572242528
  0
LINE
  8
_0-1_0_04____
  6
CONTINUOUS
 62
    2
 10
1167.397836221231
 20
480.44569572242528
 11
1167.4276403478675
 21
480.46889552554569
  0
LINE
  8
_0-1_0_04____
  6
CONTINUOUS
 62
    2
 10
1167.4276403478675
 20
480.46889552554569
 11
1167.4583352578652
 21
480.49089601877574
  0
LINE
  8
_0-1_0_04____
  6
CONTINUOUS
 62
    2
 10
1167.4583352578652
 20
480.49089601877574
 11
1167.4898467192779
 21
480.51179695129395
  0
LINE
  8
_0-1_0_04____
  6
CONTINUOUS
 62
    2
 10
1167.4898467192779
 20
480.51179695129395
 11
1167.5221376161319
 21
480.53129675581653
  0
LINE
  8
_0-1_0_04____
  6
CONTINUOUS
 62
    2
 10
1167.5221376161319
 20
480.53129675581653
 11
1167.5551337164802
 21
480.54959493070032
  0
LINE
  8
_0-1_0_04____
  6
CONTINUOUS
 62
    2
 10
1167.5551337164802
 20
480.54959493070032
 11
1167.5889463682431
 21
480.56659636626375
  0
LINE
  8
_0-1_0_04____
  6
CONTINUOUS
 62
    2
 10
1167.5889463682431
 20
480.56659636626375
 11
1167.6233528755806
 21
480.58219667383145
  0
LINE
  8
_0-1_0_04____
  6
CONTINUOUS
 62
    2
 10
1167.6233528755806
 20
480.58219667383145
 11
1167.6582418905723
 21
480.59649560258191
  0
LINE
  8
_0-1_0_04____
  6
CONTINUOUS
 62
    2
 10
1167.6582418905723
 20
480.59649560258191
 11
1167.6937247611381
 21
480.60939572308519
  0
LINE
  8
_0-1_0_04____
  6
CONTINUOUS
 62
    2
 10
1167.6937247611381
 20
480.60939572308519
 11
1167.7297272553315
 21
480.62089703534105
  0
LINE
  8
_0-1_0_04____
  6
CONTINUOUS
 62
    2
 10
1167.7297272553315
 20
480.62089703534105
 11
1167.7661380252321
 21
480.63099489985285
  0
LINE
  8
_0-1_0_04____
  6
CONTINUOUS
 62
    2
 10
1167.7661380252321
 20
480.63099489985285
 11
1167.8029199548669
 21
480.63959652668723
  0
LINE
  8
_0-1_0_04____
  6
CONTINUOUS
 62
    2
 10
1167.8029199548669
 20
480.63959652668723
 11
1167.8400359282623
 21
480.64679702552587
  0
LINE
  8
_0-1_0_04____
  6
CONTINUOUS
 62
    2
 10
1167.8400359282623
 20
480.64679702552587
 11
1167.8773374815244
 21
480.65249664719039
  0
LINE
  8
_0-1_0_04____
  6
CONTINUOUS
 62
    2
 10
1167.8773374815244
 20
480.65249664719039
 11
1167.9148246146538
 21
480.65669539168078
  0
LINE
  8
_0-1_0_04____
  6
CONTINUOUS
 62
    2
 10
1167.9148246146538
 20
480.65669539168078
 11
1167.9525344436233
 21
480.65949532792371
  0
LINE
  8
_0-1_0_04____
  6
CONTINUOUS
 62
    2
 10
1167.9525344436233
 20
480.65949532792371
 11
1167.9902442725929
 21
480.66079670674094
  0
LINE
  8
_0-1_0_04____
  6
CONTINUOUS
 62
    2
 10
1167.9902442725929
 20
480.66079670674094
 11
1168.0280283335094
 21
480.66059488863561
  0
LINE
  8
_0-1_0_04____
  6
CONTINUOUS
 62
    2
 10
1168.0280283335094
 20
480.66059488863561
 11
1168.0657381624787
 21
480.65889683285275
  0
LINE
  8
_0-1_0_04____
  6
CONTINUOUS
 62
    2
 10
1168.0657381624787
 20
480.65889683285275
 11
1168.1034479914483
 21
480.65579532932594
  0
LINE
  8
_0-1_0_04____
  6
CONTINUOUS
 62
    2
 10
1168.1034479914483
 20
480.65579532932594
 11
1168.1409351245779
 21
480.65119526837327
  0
LINE
  8
_0-1_0_04____
  6
CONTINUOUS
 62
    2
 10
1168.1409351245779
 20
480.65119526837327
 11
1168.1781253299196
 21
480.64509664999468
  0
LINE
  8
_0-1_0_04____
  6
CONTINUOUS
 62
    2
 10
1168.1781253299196
 20
480.64509664999468
 11
1168.215129955395
 21
480.63749715444203
  0
LINE
  8
_0-1_0_04____
  6
CONTINUOUS
 62
    2
 10
1168.215129955395
 20
480.63749715444203
 11
1168.2518376530829
 21
480.6284965308937
  0
LINE
  8
_0-1_0_04____
  6
CONTINUOUS
 62
    2
 10
1168.2518376530829
 20
480.6284965308937
 11
1168.2881370750633
 21
480.61809709909801
  0
LINE
  8
_0-1_0_04____
  6
CONTINUOUS
 62
    2
 10
1168.2881370750633
 20
480.61809709909801
 11
1168.3240282213364
 21
480.60619679012814
  0
LINE
  8
_0-1_0_04____
  6
CONTINUOUS
 62
    2
 10
1168.3240282213364
 20
480.60619679012814
 11
1168.3593255120356
 21
480.59299510234109
  0
LINE
  8
_0-1_0_04____
  6
CONTINUOUS
 62
    2
 10
1168.3593255120356
 20
480.59299510234109
 11
1168.3942516430002
 21
480.57829485712824
  0
LINE
  8
_0-1_0_04____
  6
CONTINUOUS
 62
    2
 10
1168.3942516430002
 20
480.57829485712824
 11
1168.4284354544975
 21
480.56239530202504
  0
LINE
  8
_0-1_0_04____
  6
CONTINUOUS
 62
    2
 10
1168.4284354544975
 20
480.56239530202504
 11
1168.4620254104202
 21
480.54499486974765
  0
LINE
  8
_0-1_0_04____
  6
CONTINUOUS
 62
    2
 10
1168.4620254104202
 20
480.54499486974765
 11
1168.4948359309014
 21
480.52639512758003
  0
LINE
  8
_0-1_0_04____
  6
CONTINUOUS
 62
    2
 10
1168.4948359309014
 20
480.52639512758003
 11
1168.5269412478883
 21
480.50649632634344
  0
LINE
  8
_0-1_0_04____
  6
CONTINUOUS
 62
    2
 10
1168.5269412478883
 20
480.50649632634344
 11
1168.5582300134606
 21
480.48539589546817
  0
LINE
  8
_0-1_0_04____
  6
CONTINUOUS
 62
    2
 10
1168.5582300134606
 20
480.48539589546817
 11
1168.5887393435914
 21
480.46299640552422
  0
LINE
  8
_0-1_0_04____
  6
CONTINUOUS
 62
    2
 10
1168.5887393435914
 20
480.46299640552422
 11
1168.6182465424408
 21
480.43949503511999
  0
LINE
  8
_0-1_0_04____
  6
CONTINUOUS
 62
    2
 10
1168.6182465424408
 20
480.43949503511999
 11
1168.6468258419554
 21
480.41479667457372
  0
LINE
  8
_0-1_0_04____
  6
CONTINUOUS
 62
    2
 10
1168.6468258419554
 20
480.41479667457372
 11
1168.6744401261612
 21
480.38899643356734
  0
LINE
  8
_0-1_0_04____
  6
CONTINUOUS
 62
    2
 10
1168.6744401261612
 20
480.38899643356734
 11
1168.7010522790856
 21
480.36219638102762
  0
LINE
  8
_0-1_0_04____
  6
CONTINUOUS
 62
    2
 10
1168.7010522790856
 20
480.36219638102762
 11
1168.7265509528083
 21
480.3342967677761
  0
LINE
  8
_0-1_0_04____
  6
CONTINUOUS
 62
    2
 10
1168.7265509528083
 20
480.3342967677761
 11
1168.750936147329
 21
480.30549709216973
  0
LINE
  8
_0-1_0_04____
  6
CONTINUOUS
 62
    2
 10
1168.750936147329
 20
480.30549709216973
 11
1168.7741336307008
 21
480.27569528528164
  0
LINE
  8
_0-1_0_04____
  6
CONTINUOUS
 62
    2
 10
1168.7741336307008
 20
480.27569528528164
 11
1168.7961434029244
 21
480.24499573578703
  0
LINE
  8
_0-1_0_04____
  6
CONTINUOUS
 62
    2
 10
1168.7961434029244
 20
480.24499573578703
 11
1168.8170396959458
 21
480.21349587311613
  0
LINE
  8
_0-1_0_04____
  6
CONTINUOUS
 62
    2
 10
1168.8170396959458
 20
480.21349587311613
 11
1168.8365255819785
 21
480.18119569726895
  0
LINE
  8
_0-1_0_04____
  6
CONTINUOUS
 62
    2
 10
1168.8365255819785
 20
480.18119569726895
 11
1168.8548237568621
 21
480.14819495742387
  0
LINE
  8
_0-1_0_04____
  6
CONTINUOUS
 62
    2
 10
1168.8548237568621
 20
480.14819495742387
 11
1168.8718228726775
 21
480.11439622415082
  0
LINE
  8
_0-1_0_04____
  6
CONTINUOUS
 62
    2
 10
1168.8718228726775
 20
480.11439622415082
 11
1168.8874486974769
 21
480.08009642523689
  0
LINE
  8
_0-1_0_04____
  6
CONTINUOUS
 62
    2
 10
1168.8874486974769
 20
480.08009642523689
 11
1168.9017383472342
 21
480.04509606232511
  0
LINE
  8
_0-1_0_04____
  6
CONTINUOUS
 62
    2
 10
1168.9017383472342
 20
480.04509606232511
 11
1168.9146175900023
 21
480.00959695352094
  0
LINE
  8
_0-1_0_04____
  6
CONTINUOUS
 62
    2
 10
1168.9146175900023
 20
480.00959695352094
 11
1168.9261235417548
 21
479.97359677907582
  0
LINE
  8
_0-1_0_04____
  6
CONTINUOUS
 62
    2
 10
1168.9261235417548
 20
479.97359677907582
 11
1168.9362190865181
 21
479.93719528816837
  0
LINE
  8
_0-1_0_04____
  6
CONTINUOUS
 62
    2
 10
1168.9362190865181
 20
479.93719528816837
 11
1168.9448299923461
 21
479.90049686947384
  0
LINE
  8
_0-1_0_04____
  6
CONTINUOUS
 62
    2
 10
1168.9448299923461
 20
479.90049686947384
 11
1168.9520304911848
 21
479.86339713431698
  0
LINE
  8
_0-1_0_04____
  6
CONTINUOUS
 62
    2
 10
1168.9520304911848
 20
479.86339713431698
 11
1168.9577463510875
 21
479.82599583187618
  0
LINE
  8
_0-1_0_04____
  6
CONTINUOUS
 62
    2
 10
1168.9577463510875
 20
479.82599583187618
 11
1168.9619404560808
 21
479.78849710000532
  0
LINE
  8
_0-1_0_04____
  6
CONTINUOUS
 62
    2
 10
1168.9619404560808
 20
479.78849710000532
 11
1168.9628312394425
 21
479.77909515999454
  0
LINE
  8
_0-1_0_04____
  6
CONTINUOUS
 62
    2
 10
1168.9628312394425
 20
479.77909515999454
 11
1168.9641302985115
 21
479.76049541782692
  0
LINE
  8
_0-1_0_04____
  6
CONTINUOUS
 62
    2
 10
1128.3115242622994
 20
489.74319602347714
 11
1128.3083322885875
 21
489.57989501953125
  0
LINE
  8
_0-1_0_04____
  6
CONTINUOUS
 62
    2
 10
1128.3083322885875
 20
489.57989501953125
 11
1128.2987192514781
 21
489.41679815343906
  0
LINE
  8
_0-1_0_04____
  6
CONTINUOUS
 62
    2
 10
1128.2987192514781
 20
489.41679815343906
 11
1128.2827222669448
 21
489.25429514292125
  0
LINE
  8
_0-1_0_04____
  6
CONTINUOUS
 62
    2
 10
1128.2827222669448
 20
489.25429514292125
 11
1128.2603413349871
 21
489.09249733589786
  0
LINE
  8
_0-1_0_04____
  6
CONTINUOUS
 62
    2
 10
1128.2603413349871
 20
489.09249733589786
 11
1128.2316506875527
 21
488.93169702065961
  0
LINE
  8
_0-1_0_04____
  6
CONTINUOUS
 62
    2
 10
1128.2316506875527
 20
488.93169702065961
 11
1128.1966503246408
 21
488.77209369556329
  0
LINE
  8
_0-1_0_04____
  6
CONTINUOUS
 62
    2
 10
1128.1966503246408
 20
488.77209369556329
 11
1128.1553402462523
 21
488.61409563631628
  0
LINE
  8
_0-1_0_04____
  6
CONTINUOUS
 62
    2
 10
1128.1553402462523
 20
488.61409563631628
 11
1128.1079431482262
 21
488.45779563285214
  0
LINE
  8
_0-1_0_04____
  6
CONTINUOUS
 62
    2
 10
1128.1079431482262
 20
488.45779563285214
 11
1128.0544219145904
 21
488.30349525245458
  0
LINE
  8
_0-1_0_04____
  6
CONTINUOUS
 62
    2
 10
1128.0544219145904
 20
488.30349525245458
 11
1127.9949250092377
 21
488.15139399348078
  0
LINE
  8
_0-1_0_04____
  6
CONTINUOUS
 62
    2
 10
1127.9949250092377
 20
488.15139399348078
 11
1127.9294524321685
 21
488.00169599378432
  0
LINE
  8
_0-1_0_04____
  6
CONTINUOUS
 62
    2
 10
1127.9294524321685
 20
488.00169599378432
 11
1127.8581526472763
 21
487.85469818115234
  0
LINE
  8
_0-1_0_04____
  6
CONTINUOUS
 62
    2
 10
1127.8581526472763
 20
487.85469818115234
 11
1127.781137002481
 21
487.71069748337203
  0
LINE
  8
_0-1_0_04____
  6
CONTINUOUS
 62
    2
 10
1127.781137002481
 20
487.71069748337203
 11
1127.6985539616767
 21
487.56979596937026
  0
LINE
  8
_0-1_0_04____
  6
CONTINUOUS
 62
    2
 10
1127.6985539616767
 20
487.56979596937026
 11
1127.6105519887562
 21
487.43219777700062
  0
LINE
  8
_0-1_0_04____
  6
CONTINUOUS
 62
    2
 10
1127.6105519887562
 20
487.43219777700062
 11
1127.5171310837204
 21
487.29819519455367
  0
LINE
  8
_0-1_0_04____
  6
CONTINUOUS
 62
    2
 10
1127.5171310837204
 20
487.29819519455367
 11
1127.4185510583825
 21
487.16799699937974
  0
LINE
  8
_0-1_0_04____
  6
CONTINUOUS
 62
    2
 10
1127.4185510583825
 20
487.16799699937974
 11
1127.3149232606631
 21
487.04169598141232
  0
LINE
  8
_0-1_0_04____
  6
CONTINUOUS
 62
    2
 10
1127.3149232606631
 20
487.04169598141232
 11
1127.2064332704288
 21
486.91959370793523
  0
LINE
  8
_0-1_0_04____
  6
CONTINUOUS
 62
    2
 10
1127.2064332704288
 20
486.91959370793523
 11
1127.0932295515731
 21
486.80179688737195
  0
LINE
  8
_0-1_0_04____
  6
CONTINUOUS
 62
    2
 10
1127.0932295515731
 20
486.80179688737195
 11
1126.9754234520165
 21
486.68859780801313
  0
LINE
  8
_0-1_0_04____
  6
CONTINUOUS
 62
    2
 10
1126.9754234520165
 20
486.68859780801313
 11
1126.8533490155194
 21
486.58009389928867
  0
LINE
  8
_0-1_0_04____
  6
CONTINUOUS
 62
    2
 10
1126.8533490155194
 20
486.58009389928867
 11
1126.7270433580552
 21
486.47649393854914
  0
LINE
  8
_0-1_0_04____
  6
CONTINUOUS
 62
    2
 10
1126.7270433580552
 20
486.47649393854914
 11
1126.5968405233848
 21
486.37789535522461
  0
LINE
  8
_0-1_0_04____
  6
CONTINUOUS
 62
    2
 10
1126.5968405233848
 20
486.37789535522461
 11
1126.4628518594277
 21
486.28449764767208
  0
LINE
  8
_0-1_0_04____
  6
CONTINUOUS
 62
    2
 10
1126.4628518594277
 20
486.28449764767208
 11
1126.3252258300781
 21
486.19649567475187
  0
LINE
  8
_0-1_0_04____
  6
CONTINUOUS
 62
    2
 10
1126.3252258300781
 20
486.19649567475187
 11
1126.1843335950698
 21
486.11389407596073
  0
LINE
  8
_0-1_0_04____
  6
CONTINUOUS
 62
    2
 10
1126.1843335950698
 20
486.11389407596073
 11
1126.040323618296
 21
486.0368969891523
  0
LINE
  8
_0-1_0_04____
  6
CONTINUOUS
 62
    2
 10
1126.040323618296
 20
486.0368969891523
 11
1125.8933443636511
 21
485.96559720425989
  0
LINE
  8
_0-1_0_04____
  6
CONTINUOUS
 62
    2
 10
1125.8933443636511
 20
485.96559720425989
 11
1125.7436185269739
 21
485.90009679021063
  0
LINE
  8
_0-1_0_04____
  6
CONTINUOUS
 62
    2
 10
1125.7436185269739
 20
485.90009679021063
 11
1125.5915543839737
 21
485.84059524536133
  0
LINE
  8
_0-1_0_04____
  6
CONTINUOUS
 62
    2
 10
1125.5915543839737
 20
485.84059524536133
 11
1125.4372261665962
 21
485.78709720920875
  0
LINE
  8
_0-1_0_04____
  6
CONTINUOUS
 62
    2
 10
1125.4372261665962
 20
485.78709720920875
 11
1125.2809308026287
 21
485.73969547168633
  0
LINE
  8
_0-1_0_04____
  6
CONTINUOUS
 62
    2
 10
1125.2809308026287
 20
485.73969547168633
 11
1125.1229281038854
 21
485.6983946722907
  0
LINE
  8
_0-1_0_04____
  6
CONTINUOUS
 62
    2
 10
1125.1229281038854
 20
485.6983946722907
 11
1124.9633294182854
 21
485.66339430937899
  0
LINE
  8
_0-1_0_04____
  6
CONTINUOUS
 62
    2
 10
1124.9633294182854
 20
485.66339430937899
 11
1124.8025430215371
 21
485.63469438295112
  0
LINE
  8
_0-1_0_04____
  6
CONTINUOUS
 62
    2
 10
1124.8025430215371
 20
485.63469438295112
 11
1124.6407544935073
 21
485.61229489300706
  0
LINE
  8
_0-1_0_04____
  6
CONTINUOUS
 62
    2
 10
1124.6407544935073
 20
485.61229489300706
 11
1124.4782236460094
 21
485.59629790847367
  0
LINE
  8
_0-1_0_04____
  6
CONTINUOUS
 62
    2
 10
1124.4782236460094
 20
485.59629790847367
 11
1124.3151360589104
 21
485.58669415035763
  0
LINE
  8
_0-1_0_04____
  6
CONTINUOUS
 62
    2
 10
1124.3151360589104
 20
485.58669415035763
 11
1124.1518257759712
 21
485.58349753714901
  0
LINE
  8
_0-1_0_04____
  6
CONTINUOUS
 62
    2
 10
1124.1518257759712
 20
485.58349753714901
 11
1123.9885526090052
 21
485.58669415035763
  0
LINE
  8
_0-1_0_04____
  6
CONTINUOUS
 62
    2
 10
1123.9885526090052
 20
485.58669415035763
 11
1123.8254279059333
 21
485.59629790847367
  0
LINE
  8
_0-1_0_04____
  6
CONTINUOUS
 62
    2
 10
1123.8254279059333
 20
485.59629790847367
 11
1123.6629341744087
 21
485.61229489300706
  0
LINE
  8
_0-1_0_04____
  6
CONTINUOUS
 62
    2
 10
1123.6629341744087
 20
485.61229489300706
 11
1123.5011456463787
 21
485.63469438295112
  0
LINE
  8
_0-1_0_04____
  6
CONTINUOUS
 62
    2
 10
1123.5011456463787
 20
485.63469438295112
 11
1123.3403221336571
 21
485.66339430937899
  0
LINE
  8
_0-1_0_04____
  6
CONTINUOUS
 62
    2
 10
1123.3403221336571
 20
485.66339430937899
 11
1123.1807234480575
 21
485.6983946722907
  0
LINE
  8
_0-1_0_04____
  6
CONTINUOUS
 62
    2
 10
1123.1807234480575
 20
485.6983946722907
 11
1123.0227207493137
 21
485.73969547168633
  0
LINE
  8
_0-1_0_04____
  6
CONTINUOUS
 62
    2
 10
1123.0227207493137
 20
485.73969547168633
 11
1122.8664253853462
 21
485.78709720920875
  0
LINE
  8
_0-1_0_04____
  6
CONTINUOUS
 62
    2
 10
1122.8664253853462
 20
485.78709720920875
 11
1122.7121342839423
 21
485.84059524536133
  0
LINE
  8
_0-1_0_04____
  6
CONTINUOUS
 62
    2
 10
1122.7121342839423
 20
485.84059524536133
 11
1122.5600330249686
 21
485.90009679021063
  0
LINE
  8
_0-1_0_04____
  6
CONTINUOUS
 62
    2
 10
1122.5600330249686
 20
485.90009679021063
 11
1122.4103443042654
 21
485.96559720425989
  0
LINE
  8
_0-1_0_04____
  6
CONTINUOUS
 62
    2
 10
1122.4103443042654
 20
485.96559720425989
 11
1122.2633279336465
 21
486.0368969891523
  0
LINE
  8
_0-1_0_04____
  6
CONTINUOUS
 62
    2
 10
1122.2633279336465
 20
486.0368969891523
 11
1122.1193179568727
 21
486.11389407596073
  0
LINE
  8
_0-1_0_04____
  6
CONTINUOUS
 62
    2
 10
1122.1193179568727
 20
486.11389407596073
 11
1121.9784257218644
 21
486.19649567475187
  0
LINE
  8
_0-1_0_04____
  6
CONTINUOUS
 62
    2
 10
1121.9784257218644
 20
486.19649567475187
 11
1121.8408368084881
 21
486.28449764767208
  0
LINE
  8
_0-1_0_04____
  6
CONTINUOUS
 62
    2
 10
1121.8408368084881
 20
486.28449764767208
 11
1121.7068481445312
 21
486.37789535522461
  0
LINE
  8
_0-1_0_04____
  6
CONTINUOUS
 62
    2
 10
1121.7068481445312
 20
486.37789535522461
 11
1121.5766453098606
 21
486.47649393854914
  0
LINE
  8
_0-1_0_04____
  6
CONTINUOUS
 62
    2
 10
1121.5766453098606
 20
486.47649393854914
 11
1121.4503396523965
 21
486.58009389928867
  0
LINE
  8
_0-1_0_04____
  6
CONTINUOUS
 62
    2
 10
1121.4503396523965
 20
486.58009389928867
 11
1121.328228099926
 21
486.68859780801313
  0
LINE
  8
_0-1_0_04____
  6
CONTINUOUS
 62
    2
 10
1121.328228099926
 20
486.68859780801313
 11
1121.2104220003698
 21
486.80179688737195
  0
LINE
  8
_0-1_0_04____
  6
CONTINUOUS
 62
    2
 10
1121.2104220003698
 20
486.80179688737195
 11
1121.097218281514
 21
486.91959370793523
  0
LINE
  8
_0-1_0_04____
  6
CONTINUOUS
 62
    2
 10
1121.097218281514
 20
486.91959370793523
 11
1120.9887282912796
 21
487.04169598141232
  0
LINE
  8
_0-1_0_04____
  6
CONTINUOUS
 62
    2
 10
1120.9887282912796
 20
487.04169598141232
 11
1120.8851376095336
 21
487.16799699937974
  0
LINE
  8
_0-1_0_04____
  6
CONTINUOUS
 62
    2
 10
1120.8851376095336
 20
487.16799699937974
 11
1120.7865204682221
 21
487.29819519455367
  0
LINE
  8
_0-1_0_04____
  6
CONTINUOUS
 62
    2
 10
1120.7865204682221
 20
487.29819519455367
 11
1120.6931366791596
 21
487.43219777700062
  0
LINE
  8
_0-1_0_04____
  6
CONTINUOUS
 62
    2
 10
1120.6931366791596
 20
487.43219777700062
 11
1120.6051347062394
 21
487.56979596937026
  0
LINE
  8
_0-1_0_04____
  6
CONTINUOUS
 62
    2
 10
1120.6051347062394
 20
487.56979596937026
 11
1120.522551665435
 21
487.71069748337203
  0
LINE
  8
_0-1_0_04____
  6
CONTINUOUS
 62
    2
 10
1120.522551665435
 20
487.71069748337203
 11
1120.4455360206398
 21
487.85469818115234
  0
LINE
  8
_0-1_0_04____
  6
CONTINUOUS
 62
    2
 10
1120.4455360206398
 20
487.85469818115234
 11
1120.3742362357475
 21
488.00169599378432
  0
LINE
  8
_0-1_0_04____
  6
CONTINUOUS
 62
    2
 10
1120.3742362357475
 20
488.00169599378432
 11
1120.3087265427048
 21
488.15139399348078
  0
LINE
  8
_0-1_0_04____
  6
CONTINUOUS
 62
    2
 10
1120.3087265427048
 20
488.15139399348078
 11
1120.2492296373521
 21
488.30349525245458
  0
LINE
  8
_0-1_0_04____
  6
CONTINUOUS
 62
    2
 10
1120.2492296373521
 20
488.30349525245458
 11
1120.1957455196898
 21
488.45779563285214
  0
LINE
  8
_0-1_0_04____
  6
CONTINUOUS
 62
    2
 10
1120.1957455196898
 20
488.45779563285214
 11
1120.1483484216637
 21
488.61409563631628
  0
LINE
  8
_0-1_0_04____
  6
CONTINUOUS
 62
    2
 10
1120.1483484216637
 20
488.61409563631628
 11
1120.107038343275
 21
488.77209369556329
  0
LINE
  8
_0-1_0_04____
  6
CONTINUOUS
 62
    2
 10
1120.107038343275
 20
488.77209369556329
 11
1120.0720379803631
 21
488.93169702065961
  0
LINE
  8
_0-1_0_04____
  6
CONTINUOUS
 62
    2
 10
1120.0720379803631
 20
488.93169702065961
 11
1120.0433473329288
 21
489.09249733589786
  0
LINE
  8
_0-1_0_04____
  6
CONTINUOUS
 62
    2
 10
1120.0433473329288
 20
489.09249733589786
 11
1120.0209292849977
 21
489.25429514292125
  0
LINE
  8
_0-1_0_04____
  6
CONTINUOUS
 62
    2
 10
1120.0209292849977
 20
489.25429514292125
 11
1120.0049323004646
 21
489.41679815343906
  0
LINE
  8
_0-1_0_04____
  6
CONTINUOUS
 62
    2
 10
1120.0049323004646
 20
489.41679815343906
 11
1119.9953192633552
 21
489.57989501953125
  0
LINE
  8
_0-1_0_04____
  6
CONTINUOUS
 62
    2
 10
1119.9953192633552
 20
489.57989501953125
 11
1119.9921272896431
 21
489.74319602347714
  0
LINE
  8
_0-1_0_04____
  6
CONTINUOUS
 62
    2
 10
1119.9921272896431
 20
489.74319602347714
 11
1119.9953192633552
 21
489.90649702742297
  0
LINE
  8
_0-1_0_04____
  6
CONTINUOUS
 62
    2
 10
1119.9953192633552
 20
489.90649702742297
 11
1120.0049323004646
 21
490.06959389351505
  0
LINE
  8
_0-1_0_04____
  6
CONTINUOUS
 62
    2
 10
1120.0049323004646
 20
490.06959389351505
 11
1120.0209292849977
 21
490.23209690403297
  0
LINE
  8
_0-1_0_04____
  6
CONTINUOUS
 62
    2
 10
1120.0209292849977
 20
490.23209690403297
 11
1120.0433473329288
 21
490.39389471105625
  0
LINE
  8
_0-1_0_04____
  6
CONTINUOUS
 62
    2
 10
1120.0433473329288
 20
490.39389471105625
 11
1120.0720379803631
 21
490.55469502629461
  0
LINE
  8
_0-1_0_04____
  6
CONTINUOUS
 62
    2
 10
1120.0720379803631
 20
490.55469502629461
 11
1120.107038343275
 21
490.7142937118943
  0
LINE
  8
_0-1_0_04____
  6
CONTINUOUS
 62
    2
 10
1120.107038343275
 20
490.7142937118943
 11
1120.1483484216637
 21
490.872296410638
  0
LINE
  8
_0-1_0_04____
  6
CONTINUOUS
 62
    2
 10
1120.1483484216637
 20
490.872296410638
 11
1120.1957455196898
 21
491.02859641410214
  0
LINE
  8
_0-1_0_04____
  6
CONTINUOUS
 62
    2
 10
1120.1957455196898
 20
491.02859641410214
 11
1120.2492296373521
 21
491.18289679449958
  0
LINE
  8
_0-1_0_04____
  6
CONTINUOUS
 62
    2
 10
1120.2492296373521
 20
491.18289679449958
 11
1120.3087265427048
 21
491.33499805347344
  0
LINE
  8
_0-1_0_04____
  6
CONTINUOUS
 62
    2
 10
1120.3087265427048
 20
491.33499805347344
 11
1120.3742362357475
 21
491.48469605316984
  0
LINE
  8
_0-1_0_04____
  6
CONTINUOUS
 62
    2
 10
1120.3742362357475
 20
491.48469605316984
 11
1120.4455360206398
 21
491.63169386580188
  0
LINE
  8
_0-1_0_04____
  6
CONTINUOUS
 62
    2
 10
1120.4455360206398
 20
491.63169386580188
 11
1120.522551665435
 21
491.77569456358208
  0
LINE
  8
_0-1_0_04____
  6
CONTINUOUS
 62
    2
 10
1120.522551665435
 20
491.77569456358208
 11
1120.6051347062394
 21
491.9165960775839
  0
LINE
  8
_0-1_0_04____
  6
CONTINUOUS
 62
    2
 10
1120.6051347062394
 20
491.9165960775839
 11
1120.6931366791596
 21
492.05419426995354
  0
LINE
  8
_0-1_0_04____
  6
CONTINUOUS
 62
    2
 10
1120.6931366791596
 20
492.05419426995354
 11
1120.7865204682221
 21
492.18819685240044
  0
LINE
  8
_0-1_0_04____
  6
CONTINUOUS
 62
    2
 10
1120.7865204682221
 20
492.18819685240044
 11
1120.8851376095336
 21
492.31839504757443
  0
LINE
  8
_0-1_0_04____
  6
CONTINUOUS
 62
    2
 10
1120.8851376095336
 20
492.31839504757443
 11
1120.9887282912796
 21
492.44469606554185
  0
LINE
  8
_0-1_0_04____
  6
CONTINUOUS
 62
    2
 10
1120.9887282912796
 20
492.44469606554185
 11
1121.097218281514
 21
492.56679369952224
  0
LINE
  8
_0-1_0_04____
  6
CONTINUOUS
 62
    2
 10
1121.097218281514
 20
492.56679369952224
 11
1121.2104220003698
 21
492.68459515958216
  0
LINE
  8
_0-1_0_04____
  6
CONTINUOUS
 62
    2
 10
1121.2104220003698
 20
492.68459515958216
 11
1121.328228099926
 21
492.79779423894109
  0
LINE
  8
_0-1_0_04____
  6
CONTINUOUS
 62
    2
 10
1121.328228099926
 20
492.79779423894109
 11
1121.4503396523965
 21
492.90629814766544
  0
LINE
  8
_0-1_0_04____
  6
CONTINUOUS
 62
    2
 10
1121.4503396523965
 20
492.90629814766544
 11
1121.5766453098606
 21
493.00989810840508
  0
LINE
  8
_0-1_0_04____
  6
CONTINUOUS
 62
    2
 10
1121.5766453098606
 20
493.00989810840508
 11
1121.7068481445312
 21
493.10849669172961
  0
LINE
  8
_0-1_0_04____
  6
CONTINUOUS
 62
    2
 10
1121.7068481445312
 20
493.10849669172961
 11
1121.8408368084881
 21
493.20189439928208
  0
LINE
  8
_0-1_0_04____
  6
CONTINUOUS
 62
    2
 10
1121.8408368084881
 20
493.20189439928208
 11
1121.9784257218644
 21
493.28989637220229
  0
LINE
  8
_0-1_0_04____
  6
CONTINUOUS
 62
    2
 10
1121.9784257218644
 20
493.28989637220229
 11
1122.1193179568727
 21
493.37249797099344
  0
LINE
  8
_0-1_0_04____
  6
CONTINUOUS
 62
    2
 10
1122.1193179568727
 20
493.37249797099344
 11
1122.2633279336465
 21
493.44949505780198
  0
LINE
  8
_0-1_0_04____
  6
CONTINUOUS
 62
    2
 10
1122.2633279336465
 20
493.44949505780198
 11
1122.4103443042654
 21
493.52079484269422
  0
LINE
  8
_0-1_0_04____
  6
CONTINUOUS
 62
    2
 10
1122.4103443042654
 20
493.52079484269422
 11
1122.5600330249686
 21
493.5862952567436
  0
LINE
  8
_0-1_0_04____
  6
CONTINUOUS
 62
    2
 10
1122.5600330249686
 20
493.5862952567436
 11
1122.7121342839423
 21
493.64579680159289
  0
LINE
  8
_0-1_0_04____
  6
CONTINUOUS
 62
    2
 10
1122.7121342839423
 20
493.64579680159289
 11
1122.8664253853462
 21
493.69929483774547
  0
LINE
  8
_0-1_0_04____
  6
CONTINUOUS
 62
    2
 10
1122.8664253853462
 20
493.69929483774547
 11
1123.0227207493137
 21
493.74669657526789
  0
LINE
  8
_0-1_0_04____
  6
CONTINUOUS
 62
    2
 10
1123.0227207493137
 20
493.74669657526789
 11
1123.1807234480575
 21
493.78799737466352
  0
LINE
  8
_0-1_0_04____
  6
CONTINUOUS
 62
    2
 10
1123.1807234480575
 20
493.78799737466352
 11
1123.3403221336571
 21
493.82299773757524
  0
LINE
  8
_0-1_0_04____
  6
CONTINUOUS
 62
    2
 10
1123.3403221336571
 20
493.82299773757524
 11
1123.5011456463787
 21
493.85169766400315
  0
LINE
  8
_0-1_0_04____
  6
CONTINUOUS
 62
    2
 10
1123.5011456463787
 20
493.85169766400315
 11
1123.6629341744087
 21
493.87409715394722
  0
LINE
  8
_0-1_0_04____
  6
CONTINUOUS
 62
    2
 10
1123.6629341744087
 20
493.87409715394722
 11
1123.8254279059333
 21
493.89009413848055
  0
LINE
  8
_0-1_0_04____
  6
CONTINUOUS
 62
    2
 10
1123.8254279059333
 20
493.89009413848055
 11
1123.9885526090052
 21
493.89969789659654
  0
LINE
  8
_0-1_0_04____
  6
CONTINUOUS
 62
    2
 10
1123.9885526090052
 20
493.89969789659654
 11
1124.1518257759712
 21
493.90289450980526
  0
LINE
  8
_0-1_0_04____
  6
CONTINUOUS
 62
    2
 10
1124.1518257759712
 20
493.90289450980526
 11
1124.3151360589104
 21
493.89969789659654
  0
LINE
  8
_0-1_0_04____
  6
CONTINUOUS
 62
    2
 10
1124.3151360589104
 20
493.89969789659654
 11
1124.4782236460094
 21
493.89009413848055
  0
LINE
  8
_0-1_0_04____
  6
CONTINUOUS
 62
    2
 10
1124.4782236460094
 20
493.89009413848055
 11
1124.6407544935073
 21
493.87409715394722
  0
LINE
  8
_0-1_0_04____
  6
CONTINUOUS
 62
    2
 10
1124.6407544935073
 20
493.87409715394722
 11
1124.8025430215371
 21
493.85169766400315
  0
LINE
  8
_0-1_0_04____
  6
CONTINUOUS
 62
    2
 10
1124.8025430215371
 20
493.85169766400315
 11
1124.9633294182854
 21
493.82299773757524
  0
LINE
  8
_0-1_0_04____
  6
CONTINUOUS
 62
    2
 10
1124.9633294182854
 20
493.82299773757524
 11
1125.1229281038854
 21
493.78799737466352
  0
LINE
  8
_0-1_0_04____
  6
CONTINUOUS
 62
    2
 10
1125.1229281038854
 20
493.78799737466352
 11
1125.2809308026287
 21
493.74669657526789
  0
LINE
  8
_0-1_0_04____
  6
CONTINUOUS
 62
    2
 10
1125.2809308026287
 20
493.74669657526789
 11
1125.4372261665962
 21
493.69929483774547
  0
LINE
  8
_0-1_0_04____
  6
CONTINUOUS
 62
    2
 10
1125.4372261665962
 20
493.69929483774547
 11
1125.5915543839737
 21
493.64579680159289
  0
LINE
  8
_0-1_0_04____
  6
CONTINUOUS
 62
    2
 10
1125.5915543839737
 20
493.64579680159289
 11
1125.7436185269739
 21
493.5862952567436
  0
LINE
  8
_0-1_0_04____
  6
CONTINUOUS
 62
    2
 10
1125.7436185269739
 20
493.5862952567436
 11
1125.8933443636511
 21
493.52079484269422
  0
LINE
  8
_0-1_0_04____
  6
CONTINUOUS
 62
    2
 10
1125.8933443636511
 20
493.52079484269422
 11
1126.040323618296
 21
493.44949505780198
  0
LINE
  8
_0-1_0_04____
  6
CONTINUOUS
 62
    2
 10
1126.040323618296
 20
493.44949505780198
 11
1126.1843335950698
 21
493.37249797099344
  0
LINE
  8
_0-1_0_04____
  6
CONTINUOUS
 62
    2
 10
1126.1843335950698
 20
493.37249797099344
 11
1126.3252258300781
 21
493.28989637220229
  0
LINE
  8
_0-1_0_04____
  6
CONTINUOUS
 62
    2
 10
1126.3252258300781
 20
493.28989637220229
 11
1126.4628518594277
 21
493.20189439928208
  0
LINE
  8
_0-1_0_04____
  6
CONTINUOUS
 62
    2
 10
1126.4628518594277
 20
493.20189439928208
 11
1126.5968405233848
 21
493.10849669172961
  0
LINE
  8
_0-1_0_04____
  6
CONTINUOUS
 62
    2
 10
1126.5968405233848
 20
493.10849669172961
 11
1126.7270433580552
 21
493.00989810840508
  0
LINE
  8
_0-1_0_04____
  6
CONTINUOUS
 62
    2
 10
1126.7270433580552
 20
493.00989810840508
 11
1126.8533490155194
 21
492.90629814766544
  0
LINE
  8
_0-1_0_04____
  6
CONTINUOUS
 62
    2
 10
1126.8533490155194
 20
492.90629814766544
 11
1126.9754234520165
 21
492.79779423894109
  0
LINE
  8
_0-1_0_04____
  6
CONTINUOUS
 62
    2
 10
1126.9754234520165
 20
492.79779423894109
 11
1127.0932295515731
 21
492.68459515958216
  0
LINE
  8
_0-1_0_04____
  6
CONTINUOUS
 62
    2
 10
1127.0932295515731
 20
492.68459515958216
 11
1127.2064332704288
 21
492.56679369952224
  0
LINE
  8
_0-1_0_04____
  6
CONTINUOUS
 62
    2
 10
1127.2064332704288
 20
492.56679369952224
 11
1127.3149232606631
 21
492.44469606554185
  0
LINE
  8
_0-1_0_04____
  6
CONTINUOUS
 62
    2
 10
1127.3149232606631
 20
492.44469606554185
 11
1127.4185510583825
 21
492.31839504757443
  0
LINE
  8
_0-1_0_04____
  6
CONTINUOUS
 62
    2
 10
1127.4185510583825
 20
492.31839504757443
 11
1127.5171310837204
 21
492.18819685240044
  0
LINE
  8
_0-1_0_04____
  6
CONTINUOUS
 62
    2
 10
1127.5171310837204
 20
492.18819685240044
 11
1127.6105519887562
 21
492.05419426995354
  0
LINE
  8
_0-1_0_04____
  6
CONTINUOUS
 62
    2
 10
1127.6105519887562
 20
492.05419426995354
 11
1127.6985539616767
 21
491.9165960775839
  0
LINE
  8
_0-1_0_04____
  6
CONTINUOUS
 62
    2
 10
1127.6985539616767
 20
491.9165960775839
 11
1127.781137002481
 21
491.77569456358208
  0
LINE
  8
_0-1_0_04____
  6
CONTINUOUS
 62
    2
 10
1127.781137002481
 20
491.77569456358208
 11
1127.8581526472763
 21
491.63169386580188
  0
LINE
  8
_0-1_0_04____
  6
CONTINUOUS
 62
    2
 10
1127.8581526472763
 20
491.63169386580188
 11
1127.9294524321685
 21
491.48469605316984
  0
LINE
  8
_0-1_0_04____
  6
CONTINUOUS
 62
    2
 10
1127.9294524321685
 20
491.48469605316984
 11
1127.9949250092377
 21
491.33499805347344
  0
LINE
  8
_0-1_0_04____
  6
CONTINUOUS
 62
    2
 10
1127.9949250092377
 20
491.33499805347344
 11
1128.0544219145904
 21
491.18289679449958
  0
LINE
  8
_0-1_0_04____
  6
CONTINUOUS
 62
    2
 10
1128.0544219145904
 20
491.18289679449958
 11
1128.1079431482262
 21
491.02859641410214
  0
LINE
  8
_0-1_0_04____
  6
CONTINUOUS
 62
    2
 10
1128.1079431482262
 20
491.02859641410214
 11
1128.1553402462523
 21
490.872296410638
  0
LINE
  8
_0-1_0_04____
  6
CONTINUOUS
 62
    2
 10
1128.1553402462523
 20
490.872296410638
 11
1128.1966503246408
 21
490.7142937118943
  0
LINE
  8
_0-1_0_04____
  6
CONTINUOUS
 62
    2
 10
1128.1966503246408
 20
490.7142937118943
 11
1128.2316506875527
 21
490.55469502629461
  0
LINE
  8
_0-1_0_04____
  6
CONTINUOUS
 62
    2
 10
1128.2316506875527
 20
490.55469502629461
 11
1128.2603413349871
 21
490.39389471105625
  0
LINE
  8
_0-1_0_04____
  6
CONTINUOUS
 62
    2
 10
1128.2603413349871
 20
490.39389471105625
 11
1128.2827222669448
 21
490.23209690403297
  0
LINE
  8
_0-1_0_04____
  6
CONTINUOUS
 62
    2
 10
1128.2827222669448
 20
490.23209690403297
 11
1128.2987192514781
 21
490.06959389351505
  0
LINE
  8
_0-1_0_04____
  6
CONTINUOUS
 62
    2
 10
1128.2987192514781
 20
490.06959389351505
 11
1128.3083322885875
 21
489.90649702742297
  0
LINE
  8
_0-1_0_04____
  6
CONTINUOUS
 62
    2
 10
1128.3083322885875
 20
489.90649702742297
 11
1128.3115242622994
 21
489.74319602347714
  0
LINE
  8
_0-1_0_04____
  6
CONTINUOUS
 62
    2
 10
1121.0722392314192
 20
463.5289959263157
 11
1127.2314494364973
 21
463.5289959263157
  0
LINE
  8
_0-1_0_04____
  6
CONTINUOUS
 62
    2
 10
1127.2314494364973
 20
463.5289959263157
 11
1127.2314494364973
 21
484.96019507743222
  0
LINE
  8
_0-1_0_04____
  6
CONTINUOUS
 62
    2
 10
1127.2314494364973
 20
484.96019507743222
 11
1121.0722392314192
 21
484.96019507743222
  0
LINE
  8
_0-1_0_04____
  6
CONTINUOUS
 62
    2
 10
1121.0722392314192
 20
484.96019507743222
 11
1121.0722392314192
 21
463.5289959263157
  0
LINE
  8
_0-1_0_04____
  6
CONTINUOUS
 62
    2
 10
1104.2741435282942
 20
493.90289450980526
 11
1104.2741435282942
 21
463.52909567549426
  0
LINE
  8
_0-1_0_04____
  6
CONTINUOUS
 62
    2
 10
1104.2741435282942
 20
463.52909567549426
 11
1110.4333537333723
 21
463.52909567549426
  0
LINE
  8
_0-1_0_04____
  6
CONTINUOUS
 62
    2
 10
1110.4333537333723
 20
463.52909567549426
 11
1110.4333537333723
 21
479.23939643035067
  0
LINE
  8
_0-1_0_04____
  6
CONTINUOUS
 62
    2
 10
1110.4333537333723
 20
479.23939643035067
 11
1110.4408511599977
 21
479.28789540883656
  0
LINE
  8
_0-1_0_04____
  6
CONTINUOUS
 62
    2
 10
1110.4408511599977
 20
479.28789540883656
 11
1110.4502415012669
 21
479.33609513978706
  0
LINE
  8
_0-1_0_04____
  6
CONTINUOUS
 62
    2
 10
1110.4502415012669
 20
479.33609513978706
 11
1110.4615247571792
 21
479.38399562320194
  0
LINE
  8
_0-1_0_04____
  6
CONTINUOUS
 62
    2
 10
1110.4615247571792
 20
479.38399562320194
 11
1110.4746266957875
 21
479.43129529179754
  0
LINE
  8
_0-1_0_04____
  6
CONTINUOUS
 62
    2
 10
1110.4746266957875
 20
479.43129529179754
 11
1110.4896215490394
 21
479.47809621450062
  0
LINE
  8
_0-1_0_04____
  6
CONTINUOUS
 62
    2
 10
1110.4896215490394
 20
479.47809621450062
 11
1110.5064350849871
 21
479.52419657320593
  0
LINE
  8
_0-1_0_04____
  6
CONTINUOUS
 62
    2
 10
1110.5064350849871
 20
479.52419657320593
 11
1110.5250301876586
 21
479.56969611709184
  0
LINE
  8
_0-1_0_04____
  6
CONTINUOUS
 62
    2
 10
1110.5250301876586
 20
479.56969611709184
 11
1110.5454439730261
 21
479.61439534780141
  0
LINE
  8
_0-1_0_04____
  6
CONTINUOUS
 62
    2
 10
1110.5454439730261
 20
479.61439534780141
 11
1110.5675279771958
 21
479.6581968359045
  0
LINE
  8
_0-1_0_04____
  6
CONTINUOUS
 62
    2
 10
1110.5675279771958
 20
479.6581968359045
 11
1110.5913193161423
 21
479.70119569108289
  0
LINE
  8
_0-1_0_04____
  6
CONTINUOUS
 62
    2
 10
1110.5913193161423
 20
479.70119569108289
 11
1110.6168179898646
 21
479.74319705447635
  0
LINE
  8
_0-1_0_04____
  6
CONTINUOUS
 62
    2
 10
1110.6168179898646
 20
479.74319705447635
 11
1110.6440239983635
 21
479.7840965374096
  0
LINE
  8
_0-1_0_04____
  6
CONTINUOUS
 62
    2
 10
1110.6440239983635
 20
479.7840965374096
 11
1110.6727517617715
 21
479.82399620880949
  0
LINE
  8
_0-1_0_04____
  6
CONTINUOUS
 62
    2
 10
1110.6727517617715
 20
479.82399620880949
 11
1110.7029270481419
 21
479.86269657031914
  0
LINE
  8
_0-1_0_04____
  6
CONTINUOUS
 62
    2
 10
1110.7029270481419
 20
479.86269657031914
 11
1110.7347354373414
 21
479.90019530219001
  0
LINE
  8
_0-1_0_04____
  6
CONTINUOUS
 62
    2
 10
1110.7347354373414
 20
479.90019530219001
 11
1110.7679542335304
 21
479.93639497499214
  0
LINE
  8
_0-1_0_04____
  6
CONTINUOUS
 62
    2
 10
1110.7679542335304
 20
479.93639497499214
 11
1110.8025463207346
 21
479.97129558872535
  0
LINE
  8
_0-1_0_04____
  6
CONTINUOUS
 62
    2
 10
1110.8025463207346
 20
479.97129558872535
 11
1110.8384374670081
 21
480.00479507446289
  0
LINE
  8
_0-1_0_04____
  6
CONTINUOUS
 62
    2
 10
1110.8384374670081
 20
480.00479507446289
 11
1110.87562767235
 21
480.03679600277462
  0
LINE
  8
_0-1_0_04____
  6
CONTINUOUS
 62
    2
 10
1110.87562767235
 20
480.03679600277462
 11
1110.9141540527344
 21
480.06739580309068
  0
LINE
  8
_0-1_0_04____
  6
CONTINUOUS
 62
    2
 10
1110.9141540527344
 20
480.06739580309068
 11
1110.9537196803738
 21
480.0963949770541
  0
LINE
  8
_0-1_0_04____
  6
CONTINUOUS
 62
    2
 10
1110.9537196803738
 20
480.0963949770541
 11
1110.9944359031883
 21
480.12389559359167
  0
LINE
  8
_0-1_0_04____
  6
CONTINUOUS
 62
    2
 10
1110.9944359031883
 20
480.12389559359167
 11
1111.0362284892317
 21
480.14969583459805
  0
LINE
  8
_0-1_0_04____
  6
CONTINUOUS
 62
    2
 10
1111.0362284892317
 20
480.14969583459805
 11
1111.0789489746094
 21
480.17389544925175
  0
LINE
  8
_0-1_0_04____
  6
CONTINUOUS
 62
    2
 10
1111.0789489746094
 20
480.17389544925175
 11
1111.1226344752956
 21
480.19639700812263
  0
LINE
  8
_0-1_0_04____
  6
CONTINUOUS
 62
    2
 10
1111.1226344752956
 20
480.19639700812263
 11
1111.1671365273965
 21
480.21709612253551
  0
LINE
  8
_0-1_0_04____
  6
CONTINUOUS
 62
    2
 10
1111.1671365273965
 20
480.21709612253551
 11
1111.2124180149387
 21
480.2360948614172
  0
LINE
  8
_0-1_0_04____
  6
CONTINUOUS
 62
    2
 10
1111.2124180149387
 20
480.2360948614172
 11
1111.2585531698692
 21
480.25329579533758
  0
LINE
  8
_0-1_0_04____
  6
CONTINUOUS
 62
    2
 10
1111.2585531698692
 20
480.25329579533758
 11
1111.3051337164802
 21
480.26869660454827
  0
LINE
  8
_0-1_0_04____
  6
CONTINUOUS
 62
    2
 10
1111.3051337164802
 20
480.26869660454827
 11
1111.352345234639
 21
480.2821952201225
  0
LINE
  8
_0-1_0_04____
  6
CONTINUOUS
 62
    2
 10
1111.352345234639
 20
480.2821952201225
 11
1111.4000392604519
 21
480.29389603073531
  0
LINE
  8
_0-1_0_04____
  6
CONTINUOUS
 62
    2
 10
1111.4000392604519
 20
480.29389603073531
 11
1111.4482529098923
 21
480.30369696746004
  0
LINE
  8
_0-1_0_04____
  6
CONTINUOUS
 62
    2
 10
1111.4482529098923
 20
480.30369696746004
 11
1111.4967263711465
 21
480.3115957105482
  0
LINE
  8
_0-1_0_04____
  6
CONTINUOUS
 62
    2
 10
1111.4967263711465
 20
480.3115957105482
 11
1111.5454225282413
 21
480.31749715031805
  0
LINE
  8
_0-1_0_04____
  6
CONTINUOUS
 62
    2
 10
1111.5454225282413
 20
480.31749715031805
 11
1111.5944527290962
 21
480.32159614562988
  0
LINE
  8
_0-1_0_04____
  6
CONTINUOUS
 62
    2
 10
1111.5944527290962
 20
480.32159614562988
 11
1111.6435200459246
 21
480.32369551787508
  0
LINE
  8
_0-1_0_04____
  6
CONTINUOUS
 62
    2
 10
1111.6435200459246
 20
480.32369551787508
 11
1111.6926244787269
 21
480.32389501623203
  0
LINE
  8
_0-1_0_04____
  6
CONTINUOUS
 62
    2
 10
1111.6926244787269
 20
480.32389501623203
 11
1111.7417289115288
 21
480.32219696044922
  0
LINE
  8
_0-1_0_04____
  6
CONTINUOUS
 62
    2
 10
1111.7417289115288
 20
480.32219696044922
 11
1111.7907219964104
 21
480.31849696185134
  0
LINE
  8
_0-1_0_04____
  6
CONTINUOUS
 62
    2
 10
1111.7907219964104
 20
480.31849696185134
 11
1111.8395295014252
 21
480.31299683854382
  0
LINE
  8
_0-1_0_04____
  6
CONTINUOUS
 62
    2
 10
1111.8395295014252
 20
480.31299683854382
 11
1111.8880400786529
 21
480.30549709216973
  0
LINE
  8
_0-1_0_04____
  6
CONTINUOUS
 62
    2
 10
1111.8880400786529
 20
480.30549709216973
 11
1111.9362537280936
 21
480.29609515215895
  0
LINE
  8
_0-1_0_04____
  6
CONTINUOUS
 62
    2
 10
1111.9362537280936
 20
480.29609515215895
 11
1111.9840219858531
 21
480.28479565800848
  0
LINE
  8
_0-1_0_04____
  6
CONTINUOUS
 62
    2
 10
1111.9840219858531
 20
480.28479565800848
 11
1112.0314190838787
 21
480.27169603914831
  0
LINE
  8
_0-1_0_04____
  6
CONTINUOUS
 62
    2
 10
1112.0314190838787
 20
480.27169603914831
 11
1112.0781480943833
 21
480.25669654639989
  0
LINE
  8
_0-1_0_04____
  6
CONTINUOUS
 62
    2
 10
1112.0781480943833
 20
480.25669654639989
 11
1112.1243203652871
 21
480.2398969289419
  0
LINE
  8
_0-1_0_04____
  6
CONTINUOUS
 62
    2
 10
1112.1243203652871
 20
480.2398969289419
 11
1112.1698245486696
 21
480.22129486702579
  0
LINE
  8
_0-1_0_04____
  6
CONTINUOUS
 62
    2
 10
1112.1698245486696
 20
480.22129486702579
 11
1112.214549296611
 21
480.20089500014848
  0
LINE
  8
_0-1_0_04____
  6
CONTINUOUS
 62
    2
 10
1112.214549296611
 20
480.20089500014848
 11
1112.2583461452175
 21
480.17879707748824
  0
LINE
  8
_0-1_0_04____
  6
CONTINUOUS
 62
    2
 10
1112.2583461452175
 20
480.17879707748824
 11
1112.3013264424089
 21
480.15499645954856
  0
LINE
  8
_0-1_0_04____
  6
CONTINUOUS
 62
    2
 10
1112.3013264424089
 20
480.15499645954856
 11
1112.3433417242927
 21
480.12949546607763
  0
LINE
  8
_0-1_0_04____
  6
CONTINUOUS
 62
    2
 10
1112.3433417242927
 20
480.12949546607763
 11
1112.3842435269739
 21
480.10239616600245
  0
LINE
  8
_0-1_0_04____
  6
CONTINUOUS
 62
    2
 10
1112.3842435269739
 20
480.10239616600245
 11
1112.4241431983742
 21
480.07369623957453
  0
LINE
  8
_0-1_0_04____
  6
CONTINUOUS
 62
    2
 10
1112.4241431983742
 20
480.07369623957453
 11
1112.4628180426521
 21
480.04339568679399
  0
LINE
  8
_0-1_0_04____
  6
CONTINUOUS
 62
    2
 10
1112.4628180426521
 20
480.04339568679399
 11
1112.5003422917548
 21
480.01169632576602
  0
LINE
  8
_0-1_0_04____
  6
CONTINUOUS
 62
    2
 10
1112.5003422917548
 20
480.01169632576602
 11
1112.536530365815
 21
479.97849608756405
  0
LINE
  8
_0-1_0_04____
  6
CONTINUOUS
 62
    2
 10
1112.536530365815
 20
479.97849608756405
 11
1112.5714193808067
 21
479.94389704111461
  0
LINE
  8
_0-1_0_04____
  6
CONTINUOUS
 62
    2
 10
1112.5714193808067
 20
479.94389704111461
 11
1112.6048237568621
 21
479.90789686666949
  0
LINE
  8
_0-1_0_04____
  6
CONTINUOUS
 62
    2
 10
1112.6048237568621
 20
479.90789686666949
 11
1112.6369290738489
 21
479.87069506258581
  0
LINE
  8
_0-1_0_04____
  6
CONTINUOUS
 62
    2
 10
1112.6369290738489
 20
479.87069506258581
 11
1112.6675497519004
 21
479.83229626836004
  0
LINE
  8
_0-1_0_04____
  6
CONTINUOUS
 62
    2
 10
1112.6675497519004
 20
479.83229626836004
 11
1112.6965373271223
 21
479.79259609531715
  0
LINE
  8
_0-1_0_04____
  6
CONTINUOUS
 62
    2
 10
1112.6965373271223
 20
479.79259609531715
 11
1112.7240402634079
 21
479.75189611074086
  0
LINE
  8
_0-1_0_04____
  6
CONTINUOUS
 62
    2
 10
1112.7240402634079
 20
479.75189611074086
 11
1112.7498358649177
 21
479.71009656545277
  0
LINE
  8
_0-1_0_04____
  6
CONTINUOUS
 62
    2
 10
1112.7498358649177
 20
479.71009656545277
 11
1112.7740354795712
 21
479.66739695780984
  0
LINE
  8
_0-1_0_04____
  6
CONTINUOUS
 62
    2
 10
1112.7740354795712
 20
479.66739695780984
 11
1112.796527759449
 21
479.62369521888525
  0
LINE
  8
_0-1_0_04____
  6
CONTINUOUS
 62
    2
 10
1112.796527759449
 20
479.62369521888525
 11
1112.8172384726035
 21
479.57919548653263
  0
LINE
  8
_0-1_0_04____
  6
CONTINUOUS
 62
    2
 10
1112.8172384726035
 20
479.57919548653263
 11
1112.8362418509819
 21
479.53389544100378
  0
LINE
  8
_0-1_0_04____
  6
CONTINUOUS
 62
    2
 10
1112.8362418509819
 20
479.53389544100378
 11
1112.8534265466637
 21
479.48789715122535
  0
LINE
  8
_0-1_0_04____
  6
CONTINUOUS
 62
    2
 10
1112.8534265466637
 20
479.48789715122535
 11
1112.8688296756227
 21
479.44119597770077
  0
LINE
  8
_0-1_0_04____
  6
CONTINUOUS
 62
    2
 10
1112.8688296756227
 20
479.44119597770077
 11
1112.8823398899387
 21
479.39399605828362
  0
LINE
  8
_0-1_0_04____
  6
CONTINUOUS
 62
    2
 10
1112.8823398899387
 20
479.39399605828362
 11
1112.8940314215583
 21
479.34629507322563
  0
LINE
  8
_0-1_0_04____
  6
CONTINUOUS
 62
    2
 10
1112.8940314215583
 20
479.34629507322563
 11
1112.9037186906144
 21
479.29809534227525
  0
LINE
  8
_0-1_0_04____
  6
CONTINUOUS
 62
    2
 10
1112.9037186906144
 20
479.29809534227525
 11
1112.9116243929479
 21
479.24969611296785
  0
LINE
  8
_0-1_0_04____
  6
CONTINUOUS
 62
    2
 10
1112.9116243929479
 20
479.24969611296785
 11
1112.9142225110854
 21
479.23049555598078
  0
LINE
  8
_0-1_0_04____
  6
CONTINUOUS
 62
    2
 10
1112.9142225110854
 20
479.23049555598078
 11
1112.9131461478569
 21
463.52909567549426
  0
LINE
  8
_0-1_0_04____
  6
CONTINUOUS
 62
    2
 10
1112.9131461478569
 20
463.52909567549426
 11
1119.0723192369614
 21
463.52909567549426
  0
LINE
  8
_0-1_0_04____
  6
CONTINUOUS
 62
    2
 10
1119.0723192369614
 20
463.52909567549426
 11
1119.0723192369614
 21
480.93749628840266
  0
LINE
  8
_0-1_0_04____
  6
CONTINUOUS
 62
    2
 10
1119.0723192369614
 20
480.93749628840266
 11
1119.0343495961781
 21
481.12659521360649
  0
LINE
  8
_0-1_0_04____
  6
CONTINUOUS
 62
    2
 10
1119.0343495961781
 20
481.12659521360649
 11
1118.9889196447425
 21
481.31409583220614
  0
LINE
  8
_0-1_0_04____
  6
CONTINUOUS
 62
    2
 10
1118.9889196447425
 20
481.31409583220614
 11
1118.9361407305744
 21
481.49959682773903
  0
LINE
  8
_0-1_0_04____
  6
CONTINUOUS
 62
    2
 10
1118.9361407305744
 20
481.49959682773903
 11
1118.8762355495144
 21
481.68289638209984
  0
LINE
  8
_0-1_0_04____
  6
CONTINUOUS
 62
    2
 10
1118.8762355495144
 20
481.68289638209984
 11
1118.8090185216956
 21
481.86379499693169
  0
LINE
  8
_0-1_0_04____
  6
CONTINUOUS
 62
    2
 10
1118.8090185216956
 20
481.86379499693169
 11
1118.7348236908783
 21
482.04179624609043
  0
LINE
  8
_0-1_0_04____
  6
CONTINUOUS
 62
    2
 10
1118.7348236908783
 20
482.04179624609043
 11
1118.6537252890098
 21
482.21679574090081
  0
LINE
  8
_0-1_0_04____
  6
CONTINUOUS
 62
    2
 10
1118.6537252890098
 20
482.21679574090081
 11
1118.5658346640098
 21
482.38849655357569
  0
LINE
  8
_0-1_0_04____
  6
CONTINUOUS
 62
    2
 10
1118.5658346640098
 20
482.38849655357569
 11
1118.4712260478254
 21
482.5565971168312
  0
LINE
  8
_0-1_0_04____
  6
CONTINUOUS
 62
    2
 10
1118.4712260478254
 20
482.5565971168312
 11
1118.3701221362967
 21
482.72079586338356
  0
LINE
  8
_0-1_0_04____
  6
CONTINUOUS
 62
    2
 10
1118.3701221362967
 20
482.72079586338356
 11
1118.2626342773437
 21
482.88099536380253
  0
LINE
  8
_0-1_0_04____
  6
CONTINUOUS
 62
    2
 10
1118.2626342773437
 20
482.88099536380253
 11
1118.148948050834
 21
483.03679662137415
  0
LINE
  8
_0-1_0_04____
  6
CONTINUOUS
 62
    2
 10
1118.148948050834
 20
483.03679662137415
 11
1118.0292490366344
 21
483.18799549824485
  0
LINE
  8
_0-1_0_04____
  6
CONTINUOUS
 62
    2
 10
1118.0292490366344
 20
483.18799549824485
 11
1117.9036485826646
 21
483.33439713555413
  0
LINE
  8
_0-1_0_04____
  6
CONTINUOUS
 62
    2
 10
1117.9036485826646
 20
483.33439713555413
 11
1117.7724436167125
 21
483.47579507570015
  0
LINE
  8
_0-1_0_04____
  6
CONTINUOUS
 62
    2
 10
1117.7724436167125
 20
483.47579507570015
 11
1117.6357454866979
 21
483.61189703039219
  0
LINE
  8
_0-1_0_04____
  6
CONTINUOUS
 62
    2
 10
1117.6357454866979
 20
483.61189703039219
 11
1117.4938511204075
 21
483.74249654202845
  0
LINE
  8
_0-1_0_04____
  6
CONTINUOUS
 62
    2
 10
1117.4938511204075
 20
483.74249654202845
 11
1117.3468347497887
 21
483.86749618117875
  0
LINE
  8
_0-1_0_04____
  6
CONTINUOUS
 62
    2
 10
1117.3468347497887
 20
483.86749618117875
 11
1117.1951417665225
 21
483.98659670030747
  0
LINE
  8
_0-1_0_04____
  6
CONTINUOUS
 62
    2
 10
1117.1951417665225
 20
483.98659670030747
 11
1117.038846402555
 21
484.09959628130935
  0
LINE
  8
_0-1_0_04____
  6
CONTINUOUS
 62
    2
 10
1117.038846402555
 20
484.09959628130935
 11
1116.8782455856735
 21
484.20649492418443
  0
LINE
  8
_0-1_0_04____
  6
CONTINUOUS
 62
    2
 10
1116.8782455856735
 20
484.20649492418443
 11
1116.7136362436656
 21
484.30689595196702
  0
LINE
  8
_0-1_0_04____
  6
CONTINUOUS
 62
    2
 10
1116.7136362436656
 20
484.30689595196702
 11
1116.5451297244508
 21
484.4007970449087
  0
LINE
  8
_0-1_0_04____
  6
CONTINUOUS
 62
    2
 10
1116.5451297244508
 20
484.4007970449087
 11
1116.3730229558173
 21
484.48799638490425
  0
LINE
  8
_0-1_0_04____
  6
CONTINUOUS
 62
    2
 10
1116.3730229558173
 20
484.48799638490425
 11
1116.1977242134712
 21
484.568394222775
  0
LINE
  8
_0-1_0_04____
  6
CONTINUOUS
 62
    2
 10
1116.1977242134712
 20
484.568394222775
 11
1116.0194190772804
 21
484.64179569966086
  0
LINE
  8
_0-1_0_04____
  6
CONTINUOUS
 62
    2
 10
1116.0194190772804
 20
484.64179569966086
 11
1115.838330243085
 21
484.70819617606503
  0
LINE
  8
_0-1_0_04____
  6
CONTINUOUS
 62
    2
 10
1115.838330243085
 20
484.70819617606503
 11
1115.6547175226983
 21
484.76739615363044
  0
LINE
  8
_0-1_0_04____
  6
CONTINUOUS
 62
    2
 10
1115.6547175226983
 20
484.76739615363044
 11
1115.4689520758552
 21
484.81939563235721
  0
LINE
  8
_0-1_0_04____
  6
CONTINUOUS
 62
    2
 10
1115.4689520758552
 20
484.81939563235721
 11
1115.2813308303421
 21
484.86399511388828
  0
LINE
  8
_0-1_0_04____
  6
CONTINUOUS
 62
    2
 10
1115.2813308303421
 20
484.86399511388828
 11
1115.0920393660263
 21
484.90129666715052
  0
LINE
  8
_0-1_0_04____
  6
CONTINUOUS
 62
    2
 10
1115.0920393660263
 20
484.90129666715052
 11
1114.9015230745886
 21
484.93099408536341
  0
LINE
  8
_0-1_0_04____
  6
CONTINUOUS
 62
    2
 10
1114.9015230745886
 20
484.93099408536341
 11
1114.7099304199219
 21
484.95329614587735
  0
LINE
  8
_0-1_0_04____
  6
CONTINUOUS
 62
    2
 10
1114.7099304199219
 20
484.95329614587735
 11
1114.5176325617608
 21
484.96799407134188
  0
LINE
  8
_0-1_0_04____
  6
CONTINUOUS
 62
    2
 10
1114.5176325617608
 20
484.96799407134188
 11
1114.3248521959458
 21
484.97519457018052
  0
LINE
  8
_0-1_0_04____
  6
CONTINUOUS
 62
    2
 10
1114.3248521959458
 20
484.97519457018052
 11
1114.1319233662371
 21
484.97479557346657
  0
LINE
  8
_0-1_0_04____
  6
CONTINUOUS
 62
    2
 10
1114.1319233662371
 20
484.97479557346657
 11
1113.9392543483425
 21
484.96679708119984
  0
LINE
  8
_0-1_0_04____
  6
CONTINUOUS
 62
    2
 10
1113.9392543483425
 20
484.96679708119984
 11
1113.7469193742081
 21
484.95129652281059
  0
LINE
  8
_0-1_0_04____
  6
CONTINUOUS
 62
    2
 10
1113.7469193742081
 20
484.95129652281059
 11
1113.5554380674619
 21
484.92819646886875
  0
LINE
  8
_0-1_0_04____
  6
CONTINUOUS
 62
    2
 10
1113.5554380674619
 20
484.92819646886875
 11
1113.3650331239444
 21
484.89769641773125
  0
LINE
  8
_0-1_0_04____
  6
CONTINUOUS
 62
    2
 10
1113.3650331239444
 20
484.89769641773125
 11
1113.1759272394952
 21
484.85959687104094
  0
LINE
  8
_0-1_0_04____
  6
CONTINUOUS
 62
    2
 10
1113.1759272394952
 20
484.85959687104094
 11
1112.9884544578758
 21
484.81419475658527
  0
LINE
  8
_0-1_0_04____
  6
CONTINUOUS
 62
    2
 10
1112.9884544578758
 20
484.81419475658527
 11
1112.8029488228462
 21
484.76149471386066
  0
LINE
  8
_0-1_0_04____
  6
CONTINUOUS
 62
    2
 10
1112.8029488228462
 20
484.76149471386066
 11
1112.6196330302473
 21
484.70149674286711
  0
LINE
  8
_0-1_0_04____
  6
CONTINUOUS
 62
    2
 10
1112.6196330302473
 20
484.70149674286711
 11
1112.4388411238388
 21
484.63439570246516
  0
LINE
  8
_0-1_0_04____
  6
CONTINUOUS
 62
    2
 10
1112.4388411238388
 20
484.63439570246516
 11
1112.2607215675148
 21
484.56019623215133
  0
LINE
  8
_0-1_0_04____
  6
CONTINUOUS
 62
    2
 10
1112.2607215675148
 20
484.56019623215133
 11
1112.0857197529558
 21
484.47909783028263
  0
LINE
  8
_0-1_0_04____
  6
CONTINUOUS
 62
    2
 10
1112.0857197529558
 20
484.47909783028263
 11
1111.9140212600296
 21
484.39109585736253
  0
LINE
  8
_0-1_0_04____
  6
CONTINUOUS
 62
    2
 10
1111.9140212600296
 20
484.39109585736253
 11
1111.7460343644425
 21
484.29649652017133
  0
LINE
  8
_0-1_0_04____
  6
CONTINUOUS
 62
    2
 10
1111.7460343644425
 20
484.29649652017133
 11
1111.5817219502214
 21
484.1953949283909
  0
LINE
  8
_0-1_0_04____
  6
CONTINUOUS
 62
    2
 10
1111.5817219502214
 20
484.1953949283909
 11
1111.4216407569679
 21
484.08789547069659
  0
LINE
  8
_0-1_0_04____
  6
CONTINUOUS
 62
    2
 10
1111.4216407569679
 20
484.08789547069659
 11
1111.2657536687079
 21
483.97419532569677
  0
LINE
  8
_0-1_0_04____
  6
CONTINUOUS
 62
    2
 10
1111.2657536687079
 20
483.97419532569677
 11
1111.1145431930954
 21
483.85449631149703
  0
LINE
  8
_0-1_0_04____
  6
CONTINUOUS
 62
    2
 10
1111.1145431930954
 20
483.85449631149703
 11
1110.968120678051
 21
483.72889585752739
  0
LINE
  8
_0-1_0_04____
  6
CONTINUOUS
 62
    2
 10
1110.968120678051
 20
483.72889585752739
 11
1110.8267459353883
 21
483.59769553107185
  0
LINE
  8
_0-1_0_04____
  6
CONTINUOUS
 62
    2
 10
1110.8267459353883
 20
483.59769553107185
 11
1110.6906416609481
 21
483.46099508130874
  0
LINE
  8
_0-1_0_04____
  6
CONTINUOUS
 62
    2
 10
1110.6906416609481
 20
483.46099508130874
 11
1110.56003055057
 21
483.31909607552188
  0
LINE
  8
_0-1_0_04____
  6
CONTINUOUS
 62
    2
 10
1110.56003055057
 20
483.31909607552188
 11
1110.4553263896223
 21
483.19689637261467
  0
LINE
  8
_0-1_0_04____
  6
CONTINUOUS
 62
    2
 10
1110.4553263896223
 20
483.19689637261467
 11
1110.4333537333723
 21
483.170096320075
  0
LINE
  8
_0-1_0_04____
  6
CONTINUOUS
 62
    2
 10
1110.4333537333723
 20
483.170096320075
 11
1110.4333537333723
 21
493.90289450980526
  0
LINE
  8
_0-1_0_04____
  6
CONTINUOUS
 62
    2
 10
1110.4333537333723
 20
493.90289450980526
 11
1104.2741435282942
 21
493.90289450980526
  0
LINE
  8
_0-1_0_04____
  6
CONTINUOUS
 62
    2
 10
1088.9693347827811
 20
468.16019486092227
 11
1088.9693347827811
 21
480.22389530491188
  0
LINE
  8
_0-1_0_04____
  6
CONTINUOUS
 62
    2
 10
1088.9693347827811
 20
480.22389530491188
 11
1089.0598235259185
 21
480.49339670748327
  0
LINE
  8
_0-1_0_04____
  6
CONTINUOUS
 62
    2
 10
1089.0598235259185
 20
480.49339670748327
 11
1089.1608532055002
 21
480.75919579170841
  0
LINE
  8
_0-1_0_04____
  6
CONTINUOUS
 62
    2
 10
1089.1608532055002
 20
480.75919579170841
 11
1089.2721268937394
 21
481.02089588062188
  0
LINE
  8
_0-1_0_04____
  6
CONTINUOUS
 62
    2
 10
1089.2721268937394
 20
481.02089588062188
 11
1089.3935332427154
 21
481.27799590858251
  0
LINE
  8
_0-1_0_04____
  6
CONTINUOUS
 62
    2
 10
1089.3935332427154
 20
481.27799590858251
 11
1089.5249237885346
 21
481.53009687887652
  0
LINE
  8
_0-1_0_04____
  6
CONTINUOUS
 62
    2
 10
1089.5249237885346
 20
481.53009687887652
 11
1089.6660387193833
 21
481.77699697339858
  0
LINE
  8
_0-1_0_04____
  6
CONTINUOUS
 62
    2
 10
1089.6660387193833
 20
481.77699697339858
 11
1089.8166182234481
 21
482.01819512650769
  0
LINE
  8
_0-1_0_04____
  6
CONTINUOUS
 62
    2
 10
1089.8166182234481
 20
482.01819512650769
 11
1089.9765509528083
 21
482.25329698098676
  0
LINE
  8
_0-1_0_04____
  6
CONTINUOUS
 62
    2
 10
1089.9765509528083
 20
482.25329698098676
 11
1090.1454286317569
 21
482.48199633005504
  0
LINE
  8
_0-1_0_04____
  6
CONTINUOUS
 62
    2
 10
1090.1454286317569
 20
482.48199633005504
 11
1090.3232512602935
 21
482.70389649674695
  0
LINE
  8
_0-1_0_04____
  6
CONTINUOUS
 62
    2
 10
1090.3232512602935
 20
482.70389649674695
 11
1090.5095363307644
 21
482.91869591377872
  0
LINE
  8
_0-1_0_04____
  6
CONTINUOUS
 62
    2
 10
1090.5095363307644
 20
482.91869591377872
 11
1090.7040240313556
 21
483.12609533361484
  0
LINE
  8
_0-1_0_04____
  6
CONTINUOUS
 62
    2
 10
1090.7040240313556
 20
483.12609533361484
 11
1090.9064545502533
 21
483.32569575954125
  0
LINE
  8
_0-1_0_04____
  6
CONTINUOUS
 62
    2
 10
1090.9064545502533
 20
483.32569575954125
 11
1091.1165309596706
 21
483.51729537345273
  0
LINE
  8
_0-1_0_04____
  6
CONTINUOUS
 62
    2
 10
1091.1165309596706
 20
483.51729537345273
 11
1091.3339192158464
 21
483.70049517863504
  0
LINE
  8
_0-1_0_04____
  6
CONTINUOUS
 62
    2
 10
1091.3339192158464
 20
483.70049517863504
 11
1091.5583223909948
 21
483.87509567673141
  0
LINE
  8
_0-1_0_04____
  6
CONTINUOUS
 62
    2
 10
1091.5583223909948
 20
483.87509567673141
 11
1091.7894435573269
 21
484.04089504963645
  0
LINE
  8
_0-1_0_04____
  6
CONTINUOUS
 62
    2
 10
1091.7894435573269
 20
484.04089504963645
 11
1092.0267259752427
 21
484.19749662038441
  0
LINE
  8
_0-1_0_04____
  6
CONTINUOUS
 62
    2
 10
1092.0267259752427
 20
484.19749662038441
 11
1092.2699469489021
 21
484.34469625112172
  0
LINE
  8
_0-1_0_04____
  6
CONTINUOUS
 62
    2
 10
1092.2699469489021
 20
484.34469625112172
 11
1092.5187353185706
 21
484.48229444349136
  0
LINE
  8
_0-1_0_04____
  6
CONTINUOUS
 62
    2
 10
1092.5187353185706
 20
484.48229444349136
 11
1092.7727199245144
 21
484.61009401888464
  0
LINE
  8
_0-1_0_04____
  6
CONTINUOUS
 62
    2
 10
1092.7727199245144
 20
484.61009401888464
 11
1093.0315296069998
 21
484.72789547894456
  0
LINE
  8
_0-1_0_04____
  6
CONTINUOUS
 62
    2
 10
1093.0315296069998
 20
484.72789547894456
 11
1093.2947189743454
 21
484.83549468581742
  0
LINE
  8
_0-1_0_04____
  6
CONTINUOUS
 62
    2
 10
1093.2947189743454
 20
484.83549468581742
 11
1093.5619539827917
 21
484.93269678064297
  0
LINE
  8
_0-1_0_04____
  6
CONTINUOUS
 62
    2
 10
1093.5619539827917
 20
484.93269678064297
 11
1093.8326407767631
 21
485.01949712392445
  0
LINE
  8
_0-1_0_04____
  6
CONTINUOUS
 62
    2
 10
1093.8326407767631
 20
485.01949712392445
 11
1094.1066308923669
 21
485.09559414837815
  0
LINE
  8
_0-1_0_04____
  6
CONTINUOUS
 62
    2
 10
1094.1066308923669
 20
485.09559414837815
 11
1094.3833304740288
 21
485.1609971329973
  0
LINE
  8
_0-1_0_04____
  6
CONTINUOUS
 62
    2
 10
1094.3833304740288
 20
485.1609971329973
 11
1094.6624425939613
 21
485.21549730043159
  0
LINE
  8
_0-1_0_04____
  6
CONTINUOUS
 62
    2
 10
1094.6624425939613
 20
485.21549730043159
 11
1094.9433362806167
 21
485.25909465068094
  0
LINE
  8
_0-1_0_04____
  6
CONTINUOUS
 62
    2
 10
1094.9433362806167
 20
485.25909465068094
 11
1095.2258259541277
 21
485.29179382324219
  0
LINE
  8
_0-1_0_04____
  6
CONTINUOUS
 62
    2
 10
1095.2258259541277
 20
485.29179382324219
 11
1095.509317758921
 21
485.31329789032804
  0
LINE
  8
_0-1_0_04____
  6
CONTINUOUS
 62
    2
 10
1095.509317758921
 20
485.31329789032804
 11
1095.7934405352619
 21
485.32379707130224
  0
LINE
  8
_0-1_0_04____
  6
CONTINUOUS
 62
    2
 10
1095.7934405352619
 20
485.32379707130224
 11
1096.0777488914696
 21
485.32319393673458
  0
LINE
  8
_0-1_0_04____
  6
CONTINUOUS
 62
    2
 10
1096.0777488914696
 20
485.32319393673458
 11
1096.3618345518369
 21
485.31149776561847
  0
LINE
  8
_0-1_0_04____
  6
CONTINUOUS
 62
    2
 10
1096.3618345518369
 20
485.31149776561847
 11
1096.64532635663
 21
485.28869463946364
  0
LINE
  8
_0-1_0_04____
  6
CONTINUOUS
 62
    2
 10
1096.64532635663
 20
485.28869463946364
 11
1096.9276304502744
 21
485.25489590619065
  0
LINE
  8
_0-1_0_04____
  6
CONTINUOUS
 62
    2
 10
1096.9276304502744
 20
485.25489590619065
 11
1097.2083385570627
 21
485.21009692630253
  0
LINE
  8
_0-1_0_04____
  6
CONTINUOUS
 62
    2
 10
1097.2083385570627
 20
485.21009692630253
 11
1097.487227981155
 21
485.15439512922961
  0
LINE
  8
_0-1_0_04____
  6
CONTINUOUS
 62
    2
 10
1097.487227981155
 20
485.15439512922961
 11
1097.7636306350296
 21
485.08779515446844
  0
LINE
  8
_0-1_0_04____
  6
CONTINUOUS
 62
    2
 10
1097.7636306350296
 20
485.08779515446844
 11
1098.0372495908994
 21
485.01049650037612
  0
LINE
  8
_0-1_0_04____
  6
CONTINUOUS
 62
    2
 10
1098.0372495908994
 20
485.01049650037612
 11
1098.307639457084
 21
484.92259659638273
  0
LINE
  8
_0-1_0_04____
  6
CONTINUOUS
 62
    2
 10
1098.307639457084
 20
484.92259659638273
 11
1098.5744290738489
 21
484.82419751141526
  0
LINE
  8
_0-1_0_04____
  6
CONTINUOUS
 62
    2
 10
1098.5744290738489
 20
484.82419751141526
 11
1098.837135933541
 21
484.71549410433386
  0
LINE
  8
_0-1_0_04____
  6
CONTINUOUS
 62
    2
 10
1098.837135933541
 20
484.71549410433386
 11
1099.0954259923988
 21
484.59659772305872
  0
LINE
  8
_0-1_0_04____
  6
CONTINUOUS
 62
    2
 10
1099.0954259923988
 20
484.59659772305872
 11
1099.3488538587417
 21
484.46769394745695
  0
LINE
  8
_0-1_0_04____
  6
CONTINUOUS
 62
    2
 10
1099.3488538587417
 20
484.46769394745695
 11
1099.5970483728356
 21
484.32899619437558
  0
LINE
  8
_0-1_0_04____
  6
CONTINUOUS
 62
    2
 10
1099.5970483728356
 20
484.32899619437558
 11
1099.8396383749473
 21
484.18079675210492
  0
LINE
  8
_0-1_0_04____
  6
CONTINUOUS
 62
    2
 10
1099.8396383749473
 20
484.18079675210492
 11
1100.0763269372887
 21
484.02319536982355
  0
LINE
  8
_0-1_0_04____
  6
CONTINUOUS
 62
    2
 10
1100.0763269372887
 20
484.02319536982355
 11
1100.3066315522065
 21
483.85639618538517
  0
LINE
  8
_0-1_0_04____
  6
CONTINUOUS
 62
    2
 10
1100.3066315522065
 20
483.85639618538517
 11
1100.5303295238596
 21
483.68089562493401
  0
LINE
  8
_0-1_0_04____
  6
CONTINUOUS
 62
    2
 10
1100.5303295238596
 20
483.68089562493401
 11
1100.7469383445946
 21
483.49669600821835
  0
LINE
  8
_0-1_0_04____
  6
CONTINUOUS
 62
    2
 10
1100.7469383445946
 20
483.49669600821835
 11
1100.9561239706504
 21
483.30419633195203
  0
LINE
  8
_0-1_0_04____
  6
CONTINUOUS
 62
    2
 10
1100.9561239706504
 20
483.30419633195203
 11
1101.1577379381333
 21
483.10369584367078
  0
LINE
  8
_0-1_0_04____
  6
CONTINUOUS
 62
    2
 10
1101.1577379381333
 20
483.10369584367078
 11
1101.3514462032836
 21
482.89549611065843
  0
LINE
  8
_0-1_0_04____
  6
CONTINUOUS
 62
    2
 10
1101.3514462032836
 20
482.89549611065843
 11
1101.5367291424725
 21
482.67989638045032
  0
LINE
  8
_0-1_0_04____
  6
CONTINUOUS
 62
    2
 10
1101.5367291424725
 20
482.67989638045032
 11
1101.7135496397275
 21
482.45719590058195
  0
LINE
  8
_0-1_0_04____
  6
CONTINUOUS
 62
    2
 10
1101.7135496397275
 20
482.45719590058195
 11
1101.8815365353148
 21
482.22779598751583
  0
LINE
  8
_0-1_0_04____
  6
CONTINUOUS
 62
    2
 10
1101.8815365353148
 20
482.22779598751583
 11
1102.0404300174196
 21
481.99199588878741
  0
LINE
  8
_0-1_0_04____
  6
CONTINUOUS
 62
    2
 10
1102.0404300174196
 20
481.99199588878741
 11
1102.190044506176
 21
481.7501969208588
  0
LINE
  8
_0-1_0_04____
  6
CONTINUOUS
 62
    2
 10
1102.190044506176
 20
481.7501969208588
 11
1102.3300459578231
 21
481.50279576069602
  0
LINE
  8
_0-1_0_04____
  6
CONTINUOUS
 62
    2
 10
1102.3300459578231
 20
481.50279576069602
 11
1102.4603230244402
 21
481.24999654615249
  0
LINE
  8
_0-1_0_04____
  6
CONTINUOUS
 62
    2
 10
1102.4603230244402
 20
481.24999654615249
 11
1102.5806530101877
 21
480.99239545255091
  0
LINE
  8
_0-1_0_04____
  6
CONTINUOUS
 62
    2
 10
1102.5806530101877
 20
480.99239545255091
 11
1102.6908503351983
 21
480.7302963669236
  0
LINE
  8
_0-1_0_04____
  6
CONTINUOUS
 62
    2
 10
1102.6908503351983
 20
480.7302963669236
 11
1102.790618071685
 21
480.46409596623602
  0
LINE
  8
_0-1_0_04____
  6
CONTINUOUS
 62
    2
 10
1102.790618071685
 20
480.46409596623602
 11
1102.8743517076646
 21
480.21249606158278
  0
LINE
  8
_0-1_0_04____
  6
CONTINUOUS
 62
    2
 10
1102.8743517076646
 20
480.21249606158278
 11
1102.8707514582452
 21
477.13069647711677
  0
LINE
  8
_0-1_0_04____
  6
CONTINUOUS
 62
    2
 10
1102.8707514582452
 20
477.13069647711677
 11
1097.2301256334458
 21
477.13069647711677
  0
LINE
  8
_0-1_0_04____
  6
CONTINUOUS
 62
    2
 10
1097.2301256334458
 20
477.13069647711677
 11
1097.2301256334458
 21
479.41529598751583
  0
LINE
  8
_0-1_0_04____
  6
CONTINUOUS
 62
    2
 10
1097.2301256334458
 20
479.41529598751583
 11
1097.22054971231
 21
479.46449552999957
  0
LINE
  8
_0-1_0_04____
  6
CONTINUOUS
 62
    2
 10
1097.22054971231
 20
479.46449552999957
 11
1097.2090437605575
 21
479.5131963265909
  0
LINE
  8
_0-1_0_04____
  6
CONTINUOUS
 62
    2
 10
1097.2090437605575
 20
479.5131963265909
 11
1097.1957191261085
 21
479.56139605754129
  0
LINE
  8
_0-1_0_04____
  6
CONTINUOUS
 62
    2
 10
1097.1957191261085
 20
479.56139605754129
 11
1097.1804273450698
 21
479.60899497367245
  0
LINE
  8
_0-1_0_04____
  6
CONTINUOUS
 62
    2
 10
1097.1804273450698
 20
479.60899497367245
 11
1097.1632426493879
 21
479.65609514391099
  0
LINE
  8
_0-1_0_04____
  6
CONTINUOUS
 62
    2
 10
1097.1632426493879
 20
479.65609514391099
 11
1097.1443506189294
 21
479.70239500097324
  0
LINE
  8
_0-1_0_04____
  6
CONTINUOUS
 62
    2
 10
1097.1443506189294
 20
479.70239500097324
 11
1097.1235285578546
 21
479.74789686460747
  0
LINE
  8
_0-1_0_04____
  6
CONTINUOUS
 62
    2
 10
1097.1235285578546
 20
479.74789686460747
 11
1097.1010362779771
 21
479.79259609531715
  0
LINE
  8
_0-1_0_04____
  6
CONTINUOUS
 62
    2
 10
1097.1010362779771
 20
479.79259609531715
 11
1097.0767253154036
 21
479.83639526367187
  0
LINE
  8
_0-1_0_04____
  6
CONTINUOUS
 62
    2
 10
1097.0767253154036
 20
479.83639526367187
 11
1097.0507441340264
 21
479.87909487131481
  0
LINE
  8
_0-1_0_04____
  6
CONTINUOUS
 62
    2
 10
1097.0507441340264
 20
479.87909487131481
 11
1097.0231298498206
 21
479.92089673635121
  0
LINE
  8
_0-1_0_04____
  6
CONTINUOUS
 62
    2
 10
1097.0231298498206
 20
479.92089673635121
 11
1096.9938453468117
 21
479.96149697174894
  0
LINE
  8
_0-1_0_04____
  6
CONTINUOUS
 62
    2
 10
1096.9938453468117
 20
479.96149697174894
 11
1096.9630390888933
 21
480.00089557750812
  0
LINE
  8
_0-1_0_04____
  6
CONTINUOUS
 62
    2
 10
1096.9630390888933
 20
480.00089557750812
 11
1096.9307481920396
 21
480.03909487337683
  0
LINE
  8
_0-1_0_04____
  6
CONTINUOUS
 62
    2
 10
1096.9307481920396
 20
480.03909487337683
 11
1096.8968241923567
 21
480.07599511017668
  0
LINE
  8
_0-1_0_04____
  6
CONTINUOUS
 62
    2
 10
1096.8968241923567
 20
480.07599511017668
 11
1096.8616382495779
 21
480.11149653872928
  0
LINE
  8
_0-1_0_04____
  6
CONTINUOUS
 62
    2
 10
1096.8616382495779
 20
480.11149653872928
 11
1096.82504189981
 21
480.14559683928621
  0
LINE
  8
_0-1_0_04____
  6
CONTINUOUS
 62
    2
 10
1096.82504189981
 20
480.14559683928621
 11
1096.7871464909736
 21
480.17829601184746
  0
LINE
  8
_0-1_0_04____
  6
CONTINUOUS
 62
    2
 10
1096.7871464909736
 20
480.17829601184746
 11
1096.7479520230677
 21
480.20939687780429
  0
LINE
  8
_0-1_0_04____
  6
CONTINUOUS
 62
    2
 10
1096.7479520230677
 20
480.20939687780429
 11
1096.7075327280406
 21
480.23899686658706
  0
LINE
  8
_0-1_0_04____
  6
CONTINUOUS
 62
    2
 10
1096.7075327280406
 20
480.23899686658706
 11
1096.6660370697846
 21
480.26689647983864
  0
LINE
  8
_0-1_0_04____
  6
CONTINUOUS
 62
    2
 10
1096.6660370697846
 20
480.26689647983864
 11
1096.6235392802473
 21
480.29329521591598
  0
LINE
  8
_0-1_0_04____
  6
CONTINUOUS
 62
    2
 10
1096.6235392802473
 20
480.29329521591598
 11
1096.5799280115075
 21
480.317896147032
  0
LINE
  8
_0-1_0_04____
  6
CONTINUOUS
 62
    2
 10
1096.5799280115075
 20
480.317896147032
 11
1096.5354259594064
 21
480.34079670261696
  0
LINE
  8
_0-1_0_04____
  6
CONTINUOUS
 62
    2
 10
1096.5354259594064
 20
480.34079670261696
 11
1096.4900331239444
 21
480.36189713349211
  0
LINE
  8
_0-1_0_04____
  6
CONTINUOUS
 62
    2
 10
1096.4900331239444
 20
480.36189713349211
 11
1096.4439350849871
 21
480.38129486908781
  0
LINE
  8
_0-1_0_04____
  6
CONTINUOUS
 62
    2
 10
1096.4439350849871
 20
480.38129486908781
 11
1096.3970204946156
 21
480.39879505054375
  0
LINE
  8
_0-1_0_04____
  6
CONTINUOUS
 62
    2
 10
1096.3970204946156
 20
480.39879505054375
 11
1096.3495491646431
 21
480.41439535811145
  0
LINE
  8
_0-1_0_04____
  6
CONTINUOUS
 62
    2
 10
1096.3495491646431
 20
480.41439535811145
 11
1096.3014468631227
 21
480.42819554096945
  0
LINE
  8
_0-1_0_04____
  6
CONTINUOUS
 62
    2
 10
1096.3014468631227
 20
480.42819554096945
 11
1096.2527507060286
 21
480.44009584993933
  0
LINE
  8
_0-1_0_04____
  6
CONTINUOUS
 62
    2
 10
1096.2527507060286
 20
480.44009584993933
 11
1096.2037205051731
 21
480.450096285021
  0
LINE
  8
_0-1_0_04____
  6
CONTINUOUS
 62
    2
 10
1096.2037205051731
 20
480.450096285021
 11
1096.154319144584
 21
480.45809709703599
  0
LINE
  8
_0-1_0_04____
  6
CONTINUOUS
 62
    2
 10
1096.154319144584
 20
480.45809709703599
 11
1096.1046208562079
 21
480.46419571541446
  0
LINE
  8
_0-1_0_04____
  6
CONTINUOUS
 62
    2
 10
1096.1046208562079
 20
480.46419571541446
 11
1096.0548483358848
 21
480.46829703047473
  0
LINE
  8
_0-1_0_04____
  6
CONTINUOUS
 62
    2
 10
1096.0548483358848
 20
480.46829703047473
 11
1096.0048531197212
 21
480.47049615189832
  0
LINE
  8
_0-1_0_04____
  6
CONTINUOUS
 62
    2
 10
1096.0048531197212
 20
480.47049615189832
 11
1095.9547465556379
 21
480.47069565025538
  0
LINE
  8
_0-1_0_04____
  6
CONTINUOUS
 62
    2
 10
1095.9547465556379
 20
480.47069565025538
 11
1095.9047513394739
 21
480.46889552554569
  0
LINE
  8
_0-1_0_04____
  6
CONTINUOUS
 62
    2
 10
1095.9047513394739
 20
480.46889552554569
 11
1095.8548303552575
 21
480.46519552694781
  0
LINE
  8
_0-1_0_04____
  6
CONTINUOUS
 62
    2
 10
1095.8548303552575
 20
480.46519552694781
 11
1095.8051320668812
 21
480.45949590528335
  0
LINE
  8
_0-1_0_04____
  6
CONTINUOUS
 62
    2
 10
1095.8051320668812
 20
480.45949590528335
 11
1095.7556193583723
 21
480.45189640973069
  0
LINE
  8
_0-1_0_04____
  6
CONTINUOUS
 62
    2
 10
1095.7556193583723
 20
480.45189640973069
 11
1095.7065520415435
 21
480.44229497136297
  0
LINE
  8
_0-1_0_04____
  6
CONTINUOUS
 62
    2
 10
1095.7065520415435
 20
480.44229497136297
 11
1095.6578187684756
 21
480.43079597885543
  0
LINE
  8
_0-1_0_04____
  6
CONTINUOUS
 62
    2
 10
1095.6578187684756
 20
480.43079597885543
 11
1095.6096422350083
 21
480.41739711245975
  0
LINE
  8
_0-1_0_04____
  6
CONTINUOUS
 62
    2
 10
1095.6096422350083
 20
480.41739711245975
 11
1095.5619482091956
 21
480.40219580160601
  0
LINE
  8
_0-1_0_04____
  6
CONTINUOUS
 62
    2
 10
1095.5619482091956
 20
480.40219580160601
 11
1095.5149222709038
 21
480.38499486768569
  0
LINE
  8
_0-1_0_04____
  6
CONTINUOUS
 62
    2
 10
1095.5149222709038
 20
480.38499486768569
 11
1095.4686386520798
 21
480.3660958779825
  0
LINE
  8
_0-1_0_04____
  6
CONTINUOUS
 62
    2
 10
1095.4686386520798
 20
480.3660958779825
 11
1095.4230231207771
 21
480.34529701439112
  0
LINE
  8
_0-1_0_04____
  6
CONTINUOUS
 62
    2
 10
1095.4230231207771
 20
480.34529701439112
 11
1095.3784468367294
 21
480.32269570634168
  0
LINE
  8
_0-1_0_04____
  6
CONTINUOUS
 62
    2
 10
1095.3784468367294
 20
480.32269570634168
 11
1095.3346499881227
 21
480.29849609168798
  0
LINE
  8
_0-1_0_04____
  6
CONTINUOUS
 62
    2
 10
1095.3346499881227
 20
480.29849609168798
 11
1095.2918181548248
 21
480.27249635232465
  0
LINE
  8
_0-1_0_04____
  6
CONTINUOUS
 62
    2
 10
1095.2918181548248
 20
480.27249635232465
 11
1095.2501369167019
 21
480.24489598660853
  0
LINE
  8
_0-1_0_04____
  6
CONTINUOUS
 62
    2
 10
1095.2501369167019
 20
480.24489598660853
 11
1095.2095320418075
 21
480.21559524536133
  0
LINE
  8
_0-1_0_04____
  6
CONTINUOUS
 62
    2
 10
1095.2095320418075
 20
480.21559524536133
 11
1095.170151994035
 21
480.18479594668827
  0
LINE
  8
_0-1_0_04____
  6
CONTINUOUS
 62
    2
 10
1095.170151994035
 20
480.18479594668827
 11
1095.1319225414377
 21
480.15239602166253
  0
LINE
  8
_0-1_0_04____
  6
CONTINUOUS
 62
    2
 10
1095.1319225414377
 20
480.15239602166253
 11
1095.0950292638831
 21
480.1185949686411
  0
LINE
  8
_0-1_0_04____
  6
CONTINUOUS
 62
    2
 10
1095.0950292638831
 20
480.1185949686411
 11
1095.0595463933173
 21
480.08339510737238
  0
LINE
  8
_0-1_0_04____
  6
CONTINUOUS
 62
    2
 10
1095.0595463933173
 20
480.08339510737238
 11
1095.0254368137669
 21
480.0467964378563
  0
LINE
  8
_0-1_0_04____
  6
CONTINUOUS
 62
    2
 10
1095.0254368137669
 20
480.0467964378563
 11
1094.9927376412056
 21
480.0087966403446
  0
LINE
  8
_0-1_0_04____
  6
CONTINUOUS
 62
    2
 10
1094.9927376412056
 20
480.0087966403446
 11
1094.9616344555002
 21
479.96969496237261
  0
LINE
  8
_0-1_0_04____
  6
CONTINUOUS
 62
    2
 10
1094.9616344555002
 20
479.96969496237261
 11
1094.9320530247044
 21
479.92929654508021
  0
LINE
  8
_0-1_0_04____
  6
CONTINUOUS
 62
    2
 10
1094.9320530247044
 20
479.92929654508021
 11
1094.904030464791
 21
479.88779624732763
  0
LINE
  8
_0-1_0_04____
  6
CONTINUOUS
 62
    2
 10
1094.904030464791
 20
479.88779624732763
 11
1094.8777523556273
 21
479.8451963888632
  0
LINE
  8
_0-1_0_04____
  6
CONTINUOUS
 62
    2
 10
1094.8777523556273
 20
479.8451963888632
 11
1094.8531444652658
 21
479.80169646804399
  0
LINE
  8
_0-1_0_04____
  6
CONTINUOUS
 62
    2
 10
1094.8531444652658
 20
479.80169646804399
 11
1094.8302439096813
 21
479.75719673569137
  0
LINE
  8
_0-1_0_04____
  6
CONTINUOUS
 62
    2
 10
1094.8302439096813
 20
479.75719673569137
 11
1094.8090506888725
 21
479.71179694098396
  0
LINE
  8
_0-1_0_04____
  6
CONTINUOUS
 62
    2
 10
1094.8090506888725
 20
479.71179694098396
 11
1094.7897503827069
 21
479.66569658227871
  0
LINE
  8
_0-1_0_04____
  6
CONTINUOUS
 62
    2
 10
1094.7897503827069
 20
479.66569658227871
 11
1094.7722316432644
 21
479.61879591039707
  0
LINE
  8
_0-1_0_04____
  6
CONTINUOUS
 62
    2
 10
1094.7722316432644
 20
479.61879591039707
 11
1094.7565315865181
 21
479.57119699426602
  0
LINE
  8
_0-1_0_04____
  6
CONTINUOUS
 62
    2
 10
1094.7565315865181
 20
479.57119699426602
 11
1094.742724444415
 21
479.52309701249402
  0
LINE
  8
_0-1_0_04____
  6
CONTINUOUS
 62
    2
 10
1094.742724444415
 20
479.52309701249402
 11
1094.7309215648752
 21
479.47449596508136
  0
LINE
  8
_0-1_0_04____
  6
CONTINUOUS
 62
    2
 10
1094.7309215648752
 20
479.47449596508136
 11
1094.7209373680321
 21
479.42549592095452
  0
LINE
  8
_0-1_0_04____
  6
CONTINUOUS
 62
    2
 10
1094.7209373680321
 20
479.42549592095452
 11
1094.7198238888304
 21
479.41909573529222
  0
LINE
  8
_0-1_0_04____
  6
CONTINUOUS
 62
    2
 10
1094.7198238888304
 20
479.41909573529222
 11
1094.7191186853356
 21
469.1791953525028
  0
LINE
  8
_0-1_0_04____
  6
CONTINUOUS
 62
    2
 10
1094.7191186853356
 20
469.1791953525028
 11
1094.728731722445
 21
469.12999581001895
  0
LINE
  8
_0-1_0_04____
  6
CONTINUOUS
 62
    2
 10
1094.728731722445
 20
469.12999581001895
 11
1094.7401263262775
 21
469.08129501342773
  0
LINE
  8
_0-1_0_04____
  6
CONTINUOUS
 62
    2
 10
1094.7401263262775
 20
469.08129501342773
 11
1094.7535251926731
 21
469.03309528247723
  0
LINE
  8
_0-1_0_04____
  6
CONTINUOUS
 62
    2
 10
1094.7535251926731
 20
469.03309528247723
 11
1094.7688540896852
 21
468.98549636634618
  0
LINE
  8
_0-1_0_04____
  6
CONTINUOUS
 62
    2
 10
1094.7688540896852
 20
468.98549636634618
 11
1094.7859274374473
 21
468.93839619610765
  0
LINE
  8
_0-1_0_04____
  6
CONTINUOUS
 62
    2
 10
1094.7859274374473
 20
468.93839619610765
 11
1094.8049308158256
 21
468.89209633904534
  0
LINE
  8
_0-1_0_04____
  6
CONTINUOUS
 62
    2
 10
1094.8049308158256
 20
468.89209633904534
 11
1094.8257528769004
 21
468.84659679515948
  0
LINE
  8
_0-1_0_04____
  6
CONTINUOUS
 62
    2
 10
1094.8257528769004
 20
468.84659679515948
 11
1094.8482451567779
 21
468.80189524470148
  0
LINE
  8
_0-1_0_04____
  6
CONTINUOUS
 62
    2
 10
1094.8482451567779
 20
468.80189524470148
 11
1094.8725190033783
 21
468.75819582552526
  0
LINE
  8
_0-1_0_04____
  6
CONTINUOUS
 62
    2
 10
1094.8725190033783
 20
468.75819582552526
 11
1094.8985373007285
 21
468.71539646870383
  0
LINE
  8
_0-1_0_04____
  6
CONTINUOUS
 62
    2
 10
1094.8985373007285
 20
468.71539646870383
 11
1094.9261515849348
 21
468.67369667259425
  0
LINE
  8
_0-1_0_04____
  6
CONTINUOUS
 62
    2
 10
1094.9261515849348
 20
468.67369667259425
 11
1094.9553247400231
 21
468.63309643719651
  0
LINE
  8
_0-1_0_04____
  6
CONTINUOUS
 62
    2
 10
1094.9553247400231
 20
468.63309643719651
 11
1094.9862423458617
 21
468.59359576251052
  0
LINE
  8
_0-1_0_04____
  6
CONTINUOUS
 62
    2
 10
1094.9862423458617
 20
468.59359576251052
 11
1095.0185332427154
 21
468.55539646664181
  0
LINE
  8
_0-1_0_04____
  6
CONTINUOUS
 62
    2
 10
1095.0185332427154
 20
468.55539646664181
 11
1095.0523458944785
 21
468.51859597902046
  0
LINE
  8
_0-1_0_04____
  6
CONTINUOUS
 62
    2
 10
1095.0523458944785
 20
468.51859597902046
 11
1095.0876431851771
 21
468.48299712103767
  0
LINE
  8
_0-1_0_04____
  6
CONTINUOUS
 62
    2
 10
1095.0876431851771
 20
468.48299712103767
 11
1095.124239534945
 21
468.44889682048074
  0
LINE
  8
_0-1_0_04____
  6
CONTINUOUS
 62
    2
 10
1095.124239534945
 20
468.44889682048074
 11
1095.1621349437814
 21
468.41629507734973
  0
LINE
  8
_0-1_0_04____
  6
CONTINUOUS
 62
    2
 10
1095.1621349437814
 20
468.41629507734973
 11
1095.2013294116873
 21
468.38509678196266
  0
LINE
  8
_0-1_0_04____
  6
CONTINUOUS
 62
    2
 10
1095.2013294116873
 20
468.38509678196266
 11
1095.2417487067146
 21
468.3554967931799
  0
LINE
  8
_0-1_0_04____
  6
CONTINUOUS
 62
    2
 10
1095.2417487067146
 20
468.3554967931799
 11
1095.2832443649704
 21
468.32759486018
  0
LINE
  8
_0-1_0_04____
  6
CONTINUOUS
 62
    2
 10
1095.2832443649704
 20
468.32759486018
 11
1095.3257421545081
 21
468.30119612410266
  0
LINE
  8
_0-1_0_04____
  6
CONTINUOUS
 62
    2
 10
1095.3257421545081
 20
468.30119612410266
 11
1095.3693534232475
 21
468.27659519298663
  0
LINE
  8
_0-1_0_04____
  6
CONTINUOUS
 62
    2
 10
1095.3693534232475
 20
468.27659519298663
 11
1095.413818359375
 21
468.25369695715
  0
LINE
  8
_0-1_0_04____
  6
CONTINUOUS
 62
    2
 10
1095.413818359375
 20
468.25369695715
 11
1095.4591369628906
 21
468.23259652627485
  0
LINE
  8
_0-1_0_04____
  6
CONTINUOUS
 62
    2
 10
1095.4591369628906
 20
468.23259652627485
 11
1095.5053463497679
 21
468.21319647093071
  0
LINE
  8
_0-1_0_04____
  6
CONTINUOUS
 62
    2
 10
1095.5053463497679
 20
468.21319647093071
 11
1095.552223824166
 21
468.19569628947488
  0
LINE
  8
_0-1_0_04____
  6
CONTINUOUS
 62
    2
 10
1095.552223824166
 20
468.19569628947488
 11
1095.5997322701119
 21
468.18009598190719
  0
LINE
  8
_0-1_0_04____
  6
CONTINUOUS
 62
    2
 10
1095.5997322701119
 20
468.18009598190719
 11
1095.6478345716323
 21
468.16629579904918
  0
LINE
  8
_0-1_0_04____
  6
CONTINUOUS
 62
    2
 10
1095.6478345716323
 20
468.16629579904918
 11
1095.6964193808067
 21
468.15439549007931
  0
LINE
  8
_0-1_0_04____
  6
CONTINUOUS
 62
    2
 10
1095.6964193808067
 20
468.15439549007931
 11
1095.7455238136085
 21
468.14449712392445
  0
LINE
  8
_0-1_0_04____
  6
CONTINUOUS
 62
    2
 10
1095.7455238136085
 20
468.14449712392445
 11
1095.7949251741979
 21
468.13639656273097
  0
LINE
  8
_0-1_0_04____
  6
CONTINUOUS
 62
    2
 10
1095.7949251741979
 20
468.13639656273097
 11
1095.844623462574
 21
468.13029562460406
  0
LINE
  8
_0-1_0_04____
  6
CONTINUOUS
 62
    2
 10
1095.844623462574
 20
468.13029562460406
 11
1095.8944330988702
 21
468.12619662929222
  0
LINE
  8
_0-1_0_04____
  6
CONTINUOUS
 62
    2
 10
1095.8944330988702
 20
468.12619662929222
 11
1095.9444283150337
 21
468.12399518812026
  0
LINE
  8
_0-1_0_04____
  6
CONTINUOUS
 62
    2
 10
1095.9444283150337
 20
468.12399518812026
 11
1095.9945348791175
 21
468.12379568976326
  0
LINE
  8
_0-1_0_04____
  6
CONTINUOUS
 62
    2
 10
1095.9945348791175
 20
468.12379568976326
 11
1096.0445300952811
 21
468.12559581447289
  0
LINE
  8
_0-1_0_04____
  6
CONTINUOUS
 62
    2
 10
1096.0445300952811
 20
468.12559581447289
 11
1096.0944510794975
 21
468.12929581307071
  0
LINE
  8
_0-1_0_04____
  6
CONTINUOUS
 62
    2
 10
1096.0944510794975
 20
468.12929581307071
 11
1096.1441493678738
 21
468.13499543473523
  0
LINE
  8
_0-1_0_04____
  6
CONTINUOUS
 62
    2
 10
1096.1441493678738
 20
468.13499543473523
 11
1096.1936249604096
 21
468.14259493028794
  0
LINE
  8
_0-1_0_04____
  6
CONTINUOUS
 62
    2
 10
1096.1936249604096
 20
468.14259493028794
 11
1096.2427293932114
 21
468.15219636865567
  0
LINE
  8
_0-1_0_04____
  6
CONTINUOUS
 62
    2
 10
1096.2427293932114
 20
468.15219636865567
 11
1096.2914255503063
 21
468.16369536116321
  0
LINE
  8
_0-1_0_04____
  6
CONTINUOUS
 62
    2
 10
1096.2914255503063
 20
468.16369536116321
 11
1096.3396391997467
 21
468.1770965473072
  0
LINE
  8
_0-1_0_04____
  6
CONTINUOUS
 62
    2
 10
1096.3396391997467
 20
468.1770965473072
 11
1096.3873332255598
 21
468.19239528759113
  0
LINE
  8
_0-1_0_04____
  6
CONTINUOUS
 62
    2
 10
1096.3873332255598
 20
468.19239528759113
 11
1096.4343220478777
 21
468.20949647233289
  0
LINE
  8
_0-1_0_04____
  6
CONTINUOUS
 62
    2
 10
1096.4343220478777
 20
468.20949647233289
 11
1096.4806427826752
 21
468.22849521121464
  0
LINE
  8
_0-1_0_04____
  6
CONTINUOUS
 62
    2
 10
1096.4806427826752
 20
468.22849521121464
 11
1096.5261469660577
 21
468.24919664537583
  0
LINE
  8
_0-1_0_04____
  6
CONTINUOUS
 62
    2
 10
1096.5261469660577
 20
468.24919664537583
 11
1096.5708345980261
 21
468.2717956336769
  0
LINE
  8
_0-1_0_04____
  6
CONTINUOUS
 62
    2
 10
1096.5708345980261
 20
468.2717956336769
 11
1096.6146314466323
 21
468.29599524833066
  0
LINE
  8
_0-1_0_04____
  6
CONTINUOUS
 62
    2
 10
1096.6146314466323
 20
468.29599524833066
 11
1096.6574261639569
 21
468.32199498769398
  0
LINE
  8
_0-1_0_04____
  6
CONTINUOUS
 62
    2
 10
1096.6574261639569
 20
468.32199498769398
 11
1096.6991445180531
 21
468.34959535341011
  0
LINE
  8
_0-1_0_04____
  6
CONTINUOUS
 62
    2
 10
1096.6991445180531
 20
468.34959535341011
 11
1096.7397493929479
 21
468.37889609465731
  0
LINE
  8
_0-1_0_04____
  6
CONTINUOUS
 62
    2
 10
1096.7397493929479
 20
468.37889609465731
 11
1096.77912944072
 21
468.40969539333031
  0
LINE
  8
_0-1_0_04____
  6
CONTINUOUS
 62
    2
 10
1096.77912944072
 20
468.40969539333031
 11
1096.8173217773437
 21
468.44209531835605
  0
LINE
  8
_0-1_0_04____
  6
CONTINUOUS
 62
    2
 10
1096.8173217773437
 20
468.44209531835605
 11
1096.8542521708723
 21
468.47589637137753
  0
LINE
  8
_0-1_0_04____
  6
CONTINUOUS
 62
    2
 10
1096.8542521708723
 20
468.47589637137753
 11
1096.8897350414377
 21
468.51109623264625
  0
LINE
  8
_0-1_0_04____
  6
CONTINUOUS
 62
    2
 10
1096.8897350414377
 20
468.51109623264625
 11
1096.9238446209881
 21
468.54769490216233
  0
LINE
  8
_0-1_0_04____
  6
CONTINUOUS
 62
    2
 10
1096.9238446209881
 20
468.54769490216233
 11
1096.9565437935494
 21
468.58569701942235
  0
LINE
  8
_0-1_0_04____
  6
CONTINUOUS
 62
    2
 10
1096.9565437935494
 20
468.58569701942235
 11
1096.9876469792548
 21
468.62479637764591
  0
LINE
  8
_0-1_0_04____
  6
CONTINUOUS
 62
    2
 10
1096.9876469792548
 20
468.62479637764591
 11
1097.0172284100506
 21
468.66519711468675
  0
LINE
  8
_0-1_0_04____
  6
CONTINUOUS
 62
    2
 10
1097.0172284100506
 20
468.66519711468675
 11
1097.0452509699639
 21
468.70669509269101
  0
LINE
  8
_0-1_0_04____
  6
CONTINUOUS
 62
    2
 10
1097.0452509699639
 20
468.70669509269101
 11
1097.0715290791277
 21
468.74929495115532
  0
LINE
  8
_0-1_0_04____
  6
CONTINUOUS
 62
    2
 10
1097.0715290791277
 20
468.74929495115532
 11
1097.0961369694892
 21
468.79279487197465
  0
LINE
  8
_0-1_0_04____
  6
CONTINUOUS
 62
    2
 10
1097.0961369694892
 20
468.79279487197465
 11
1097.119037525074
 21
468.83729692407559
  0
LINE
  8
_0-1_0_04____
  6
CONTINUOUS
 62
    2
 10
1097.119037525074
 20
468.83729692407559
 11
1097.1402307458825
 21
468.882696718783
  0
LINE
  8
_0-1_0_04____
  6
CONTINUOUS
 62
    2
 10
1097.1402307458825
 20
468.882696718783
 11
1097.1595310520481
 21
468.92889682666669
  0
LINE
  8
_0-1_0_04____
  6
CONTINUOUS
 62
    2
 10
1097.1595310520481
 20
468.92889682666669
 11
1097.1770497914906
 21
468.97569542962151
  0
LINE
  8
_0-1_0_04____
  6
CONTINUOUS
 62
    2
 10
1097.1770497914906
 20
468.97569542962151
 11
1097.1927498482369
 21
469.02329666550094
  0
LINE
  8
_0-1_0_04____
  6
CONTINUOUS
 62
    2
 10
1097.1927498482369
 20
469.02329666550094
 11
1097.2064456424196
 21
469.07139664727288
  0
LINE
  8
_0-1_0_04____
  6
CONTINUOUS
 62
    2
 10
1097.2064456424196
 20
469.07139664727288
 11
1097.2183227539062
 21
469.11999537493728
  0
LINE
  8
_0-1_0_04____
  6
CONTINUOUS
 62
    2
 10
1097.2183227539062
 20
469.11999537493728
 11
1097.2283440667229
 21
469.16899541906406
  0
LINE
  8
_0-1_0_04____
  6
CONTINUOUS
 62
    2
 10
1097.2283440667229
 20
469.16899541906406
 11
1097.2327237515833
 21
469.19459616171343
  0
LINE
  8
_0-1_0_04____
  6
CONTINUOUS
 62
    2
 10
1097.2327237515833
 20
469.19459616171343
 11
1097.2301256334458
 21
471.59919625359612
  0
LINE
  8
_0-1_0_04____
  6
CONTINUOUS
 62
    2
 10
1097.2301256334458
 20
471.59919625359612
 11
1102.8707514582452
 21
471.59919625359612
  0
LINE
  8
_0-1_0_04____
  6
CONTINUOUS
 62
    2
 10
1102.8707514582452
 20
471.59919625359612
 11
1102.8707514582452
 21
468.16019486092227
  0
LINE
  8
_0-1_0_04____
  6
CONTINUOUS
 62
    2
 10
1102.8707514582452
 20
468.16019486092227
 11
1102.7527226628486
 21
467.89119684374009
  0
LINE
  8
_0-1_0_04____
  6
CONTINUOUS
 62
    2
 10
1102.7527226628486
 20
467.89119684374009
 11
1102.624227162954
 21
467.62699606611926
  0
LINE
  8
_0-1_0_04____
  6
CONTINUOUS
 62
    2
 10
1102.624227162954
 20
467.62699606611926
 11
1102.4855247703758
 21
467.36809591344883
  0
LINE
  8
_0-1_0_04____
  6
CONTINUOUS
 62
    2
 10
1102.4855247703758
 20
467.36809591344883
 11
1102.3368381809544
 21
467.11469588408602
  0
LINE
  8
_0-1_0_04____
  6
CONTINUOUS
 62
    2
 10
1102.3368381809544
 20
467.11469588408602
 11
1102.1784272065033
 21
466.86739679285
  0
LINE
  8
_0-1_0_04____
  6
CONTINUOUS
 62
    2
 10
1102.1784272065033
 20
466.86739679285
 11
1102.0104403109167
 21
466.62639581834947
  0
LINE
  8
_0-1_0_04____
  6
CONTINUOUS
 62
    2
 10
1102.0104403109167
 20
466.62639581834947
 11
1101.8332486539271
 21
466.39209659679523
  0
LINE
  8
_0-1_0_04____
  6
CONTINUOUS
 62
    2
 10
1101.8332486539271
 20
466.39209659679523
 11
1101.6469264674831
 21
466.1649955543312
  0
LINE
  8
_0-1_0_04____
  6
CONTINUOUS
 62
    2
 10
1101.6469264674831
 20
466.1649955543312
 11
1101.4519191432644
 21
465.94519707963269
  0
LINE
  8
_0-1_0_04____
  6
CONTINUOUS
 62
    2
 10
1101.4519191432644
 20
465.94519707963269
 11
1101.2485236090583
 21
465.73329502827414
  0
LINE
  8
_0-1_0_04____
  6
CONTINUOUS
 62
    2
 10
1101.2485236090583
 20
465.73329502827414
 11
1101.0370367926521
 21
465.52939610867884
  0
LINE
  8
_0-1_0_04____
  6
CONTINUOUS
 62
    2
 10
1101.0370367926521
 20
465.52939610867884
 11
1100.8177185058594
 21
465.33399674699109
  0
LINE
  8
_0-1_0_04____
  6
CONTINUOUS
 62
    2
 10
1100.8177185058594
 20
465.33399674699109
 11
1100.5909399084144
 21
465.14729644156796
  0
LINE
  8
_0-1_0_04____
  6
CONTINUOUS
 62
    2
 10
1100.5909399084144
 20
465.14729644156796
 11
1100.3570350440773
 21
464.9694970105146
  0
LINE
  8
_0-1_0_04____
  6
CONTINUOUS
 62
    2
 10
1100.3570350440773
 20
464.9694970105146
 11
1100.1164493045289
 21
464.80099629067081
  0
LINE
  8
_0-1_0_04____
  6
CONTINUOUS
 62
    2
 10
1100.1164493045289
 20
464.80099629067081
 11
1099.8694425015833
 21
464.64209584932075
  0
LINE
  8
_0-1_0_04____
  6
CONTINUOUS
 62
    2
 10
1099.8694425015833
 20
464.64209584932075
 11
1099.6163486790012
 21
464.49289543564254
  0
LINE
  8
_0-1_0_04____
  6
CONTINUOUS
 62
    2
 10
1099.6163486790012
 20
464.49289543564254
 11
1099.3576503444363
 21
464.35359570786756
  0
LINE
  8
_0-1_0_04____
  6
CONTINUOUS
 62
    2
 10
1099.3576503444363
 20
464.35359570786756
 11
1099.0937186576225
 21
464.22459566270982
  0
LINE
  8
_0-1_0_04____
  6
CONTINUOUS
 62
    2
 10
1099.0937186576225
 20
464.22459566270982
 11
1098.8250361262139
 21
464.10599620922198
  0
LINE
  8
_0-1_0_04____
  6
CONTINUOUS
 62
    2
 10
1098.8250361262139
 20
464.10599620922198
 11
1098.5518254460517
 21
463.99789593670823
  0
LINE
  8
_0-1_0_04____
  6
CONTINUOUS
 62
    2
 10
1098.5518254460517
 20
463.99789593670823
 11
1098.2747175886825
 21
463.9005964124525
  0
LINE
  8
_0-1_0_04____
  6
CONTINUOUS
 62
    2
 10
1098.2747175886825
 20
463.9005964124525
 11
1097.9939352499473
 21
463.81419622575913
  0
LINE
  8
_0-1_0_04____
  6
CONTINUOUS
 62
    2
 10
1097.9939352499473
 20
463.81419622575913
 11
1097.7100351694469
 21
463.73879628568079
  0
LINE
  8
_0-1_0_04____
  6
CONTINUOUS
 62
    2
 10
1097.7100351694469
 20
463.73879628568079
 11
1097.4233513909417
 21
463.67449634139604
  0
LINE
  8
_0-1_0_04____
  6
CONTINUOUS
 62
    2
 10
1097.4233513909417
 20
463.67449634139604
 11
1097.1344406540329
 21
463.62149589126176
  0
LINE
  8
_0-1_0_04____
  6
CONTINUOUS
 62
    2
 10
1097.1344406540329
 20
463.62149589126176
 11
1096.843637002481
 21
463.57969634597367
  0
LINE
  8
_0-1_0_04____
  6
CONTINUOUS
 62
    2
 10
1096.843637002481
 20
463.57969634597367
 11
1096.55142294394
 21
463.54939579319313
  0
LINE
  8
_0-1_0_04____
  6
CONTINUOUS
 62
    2
 10
1096.55142294394
 20
463.54939579319313
 11
1096.2583181020375
 21
463.53049564361572
  0
LINE
  8
_0-1_0_04____
  6
CONTINUOUS
 62
    2
 10
1096.2583181020375
 20
463.53049564361572
 11
1095.9646194045608
 21
463.52299589724157
  0
LINE
  8
_0-1_0_04____
  6
CONTINUOUS
 62
    2
 10
1095.9646194045608
 20
463.52299589724157
 11
1095.670920707084
 21
463.52699630324906
  0
LINE
  8
_0-1_0_04____
  6
CONTINUOUS
 62
    2
 10
1095.670920707084
 20
463.52699630324906
 11
1095.3775189373944
 21
463.54239595258559
  0
LINE
  8
_0-1_0_04____
  6
CONTINUOUS
 62
    2
 10
1095.3775189373944
 20
463.54239595258559
 11
1095.0850450670396
 21
463.56929575430377
  0
LINE
  8
_0-1_0_04____
  6
CONTINUOUS
 62
    2
 10
1095.0850450670396
 20
463.56929575430377
 11
1094.7938331397804
 21
463.60759595922519
  0
LINE
  8
_0-1_0_04____
  6
CONTINUOUS
 62
    2
 10
1094.7938331397804
 20
463.60759595922519
 11
1094.5042543153506
 21
463.65719565829716
  0
LINE
  8
_0-1_0_04____
  6
CONTINUOUS
 62
    2
 10
1094.5042543153506
 20
463.65719565829716
 11
1094.2168282173775
 21
463.71809601139381
  0
LINE
  8
_0-1_0_04____
  6
CONTINUOUS
 62
    2
 10
1094.2168282173775
 20
463.71809601139381
 11
1093.9321487014358
 21
463.790096360284
  0
LINE
  8
_0-1_0_04____
  6
CONTINUOUS
 62
    2
 10
1093.9321487014358
 20
463.790096360284
 11
1093.6503271154456
 21
463.87319554509344
  0
LINE
  8
_0-1_0_04____
  6
CONTINUOUS
 62
    2
 10
1093.6503271154456
 20
463.87319554509344
 11
1093.3720315469277
 21
463.96719638721356
  0
LINE
  8
_0-1_0_04____
  6
CONTINUOUS
 62
    2
 10
1093.3720315469277
 20
463.96719638721356
 11
1093.0976331556167
 21
464.07199565784344
  0
LINE
  8
_0-1_0_04____
  6
CONTINUOUS
 62
    2
 10
1093.0976331556167
 20
464.07199565784344
 11
1092.8274288692992
 21
464.18749592755296
  0
LINE
  8
_0-1_0_04____
  6
CONTINUOUS
 62
    2
 10
1092.8274288692992
 20
464.18749592755296
 11
1092.5620496595229
 21
464.31329587987949
  0
LINE
  8
_0-1_0_04____
  6
CONTINUOUS
 62
    2
 10
1092.5620496595229
 20
464.31329587987949
 11
1092.3017182221283
 21
464.44949642387598
  0
LINE
  8
_0-1_0_04____
  6
CONTINUOUS
 62
    2
 10
1092.3017182221283
 20
464.44949642387598
 11
1092.0469541807431
 21
464.59569624307994
  0
LINE
  8
_0-1_0_04____
  6
CONTINUOUS
 62
    2
 10
1092.0469541807431
 20
464.59569624307994
 11
1091.7980544631546
 21
464.75169583913441
  0
LINE
  8
_0-1_0_04____
  6
CONTINUOUS
 62
    2
 10
1091.7980544631546
 20
464.75169583913441
 11
1091.5554273450698
 21
464.91729571368239
  0
LINE
  8
_0-1_0_04____
  6
CONTINUOUS
 62
    2
 10
1091.5554273450698
 20
464.91729571368239
 11
1091.3194439862225
 21
465.09229520849277
  0
LINE
  8
_0-1_0_04____
  6
CONTINUOUS
 62
    2
 10
1091.3194439862225
 20
465.09229520849277
 11
1091.0904384303738
 21
465.27629532685148
  0
LINE
  8
_0-1_0_04____
  6
CONTINUOUS
 62
    2
 10
1091.0904384303738
 20
465.27629532685148
 11
1090.8688189532306
 21
465.46919631958008
  0
LINE
  8
_0-1_0_04____
  6
CONTINUOUS
 62
    2
 10
1090.8688189532306
 20
465.46919631958008
 11
1090.6549195985538
 21
465.67049712103767
  0
LINE
  8
_0-1_0_04____
  6
CONTINUOUS
 62
    2
 10
1090.6549195985538
 20
465.67049712103767
 11
1090.44903729413
 21
465.87999591311893
  0
LINE
  8
_0-1_0_04____
  6
CONTINUOUS
 62
    2
 10
1090.44903729413
 20
465.87999591311893
 11
1090.2514318517738
 21
466.09739576803668
  0
LINE
  8
_0-1_0_04____
  6
CONTINUOUS
 62
    2
 10
1090.2514318517738
 20
466.09739576803668
 11
1090.062548663165
 21
466.32229536932869
  0
LINE
  8
_0-1_0_04____
  6
CONTINUOUS
 62
    2
 10
1090.062548663165
 20
466.32229536932869
 11
1089.8825361921981
 21
466.55449521863784
  0
LINE
  8
_0-1_0_04____
  6
CONTINUOUS
 62
    2
 10
1089.8825361921981
 20
466.55449521863784
 11
1089.7117284826331
 21
466.79349657007168
  0
LINE
  8
_0-1_0_04____
  6
CONTINUOUS
 62
    2
 10
1089.7117284826331
 20
466.79349657007168
 11
1089.5503482303102
 21
467.03889578741951
  0
LINE
  8
_0-1_0_04____
  6
CONTINUOUS
 62
    2
 10
1089.5503482303102
 20
467.03889578741951
 11
1089.3986181310706
 21
467.29049569207268
  0
LINE
  8
_0-1_0_04____
  6
CONTINUOUS
 62
    2
 10
1089.3986181310706
 20
467.29049569207268
 11
1089.2569464606208
 21
467.54779521839032
  0
LINE
  8
_0-1_0_04____
  6
CONTINUOUS
 62
    2
 10
1089.2569464606208
 20
467.54779521839032
 11
1089.1253332189613
 21
467.81039536965864
  0
LINE
  8
_0-1_0_04____
  6
CONTINUOUS
 62
    2
 10
1089.1253332189613
 20
467.81039536965864
 11
1089.0040382179054
 21
468.07799689834184
  0
LINE
  8
_0-1_0_04____
  6
CONTINUOUS
 62
    2
 10
1089.0040382179054
 20
468.07799689834184
 11
1088.9693347827811
 21
468.16019486092227
  0
LINE
  8
_0-1_0_04____
  6
CONTINUOUS
 62
    2
 10
1129.3112430057008
 20
463.52909567549426
 11
1135.4704532107789
 21
463.52909567549426
  0
LINE
  8
_0-1_0_04____
  6
CONTINUOUS
 62
    2
 10
1135.4704532107789
 20
463.52909567549426
 11
1135.4704532107789
 21
493.90289450980526
  0
LINE
  8
_0-1_0_04____
  6
CONTINUOUS
 62
    2
 10
1135.4704532107789
 20
493.90289450980526
 11
1129.3112430057008
 21
493.90289450980526
  0
LINE
  8
_0-1_0_04____
  6
CONTINUOUS
 62
    2
 10
1129.3112430057008
 20
493.90289450980526
 11
1129.3112430057008
 21
463.52909567549426
  0
LINE
  8
_0-1_0_04____
  6
CONTINUOUS
 62
    2
 10
1137.4703360892631
 20
493.90289450980526
 11
1137.4703360892631
 21
463.52909567549426
  0
LINE
  8
_0-1_0_04____
  6
CONTINUOUS
 62
    2
 10
1137.4703360892631
 20
463.52909567549426
 11
1143.6295462943413
 21
463.52909567549426
  0
LINE
  8
_0-1_0_04____
  6
CONTINUOUS
 62
    2
 10
1143.6295462943413
 20
463.52909567549426
 11
1143.6295462943413
 21
493.90289450980526
  0
LINE
  8
_0-1_0_04____
  6
CONTINUOUS
 62
    2
 10
1143.6295462943413
 20
493.90289450980526
 11
1137.4703360892631
 21
493.90289450980526
  0
LINE
  8
_0-1_0_04____
  6
CONTINUOUS
 62
    4
 10
1145.1633267789275
 20
480.59329666962492
 11
1145.1270273569469
 21
480.50329507363813
  0
LINE
  8
_0-1_0_04____
  6
CONTINUOUS
 62
    4
 10
1145.1270273569469
 20
480.50329507363813
 11
1145.1270273569469
 21
467.03249560175715
  0
LINE
  8
_0-1_0_04____
  6
CONTINUOUS
 62
    4
 10
1145.1270273569469
 20
467.03249560175715
 11
1145.3721412452492
 21
466.74689514572555
  0
LINE
  8
_0-1_0_04____
  6
CONTINUOUS
 62
    4
 10
1145.3721412452492
 20
466.74689514572555
 11
1145.6282414616767
 21
466.47109562641867
  0
LINE
  8
_0-1_0_04____
  6
CONTINUOUS
 62
    4
 10
1145.6282414616767
 20
466.47109562641867
 11
1145.8948454985748
 21
466.20549604055043
  0
LINE
  8
_0-1_0_04____
  6
CONTINUOUS
 62
    4
 10
1145.8948454985748
 20
466.20549604055043
 11
1146.1716193121833
 21
465.95049538483488
  0
LINE
  8
_0-1_0_04____
  6
CONTINUOUS
 62
    4
 10
1146.1716193121833
 20
465.95049538483488
 11
1146.4582288587417
 21
465.70649497573442
  0
LINE
  8
_0-1_0_04____
  6
CONTINUOUS
 62
    4
 10
1146.4582288587417
 20
465.70649497573442
 11
1146.7540431667019
 21
465.4737963805328
  0
LINE
  8
_0-1_0_04____
  6
CONTINUOUS
 62
    4
 10
1146.7540431667019
 20
465.4737963805328
 11
1147.0587281923038
 21
465.25289602537407
  0
LINE
  8
_0-1_0_04____
  6
CONTINUOUS
 62
    4
 10
1147.0587281923038
 20
465.25289602537407
 11
1147.3718385438663
 21
465.04399572836383
  0
LINE
  8
_0-1_0_04____
  6
CONTINUOUS
 62
    4
 10
1147.3718385438663
 20
465.04399572836383
 11
1147.6928174817886
 21
464.84749564609012
  0
LINE
  8
_0-1_0_04____
  6
CONTINUOUS
 62
    4
 10
1147.6928174817886
 20
464.84749564609012
 11
1148.0212196143898
 21
464.66369618596258
  0
LINE
  8
_0-1_0_04____
  6
CONTINUOUS
 62
    4
 10
1148.0212196143898
 20
464.66369618596258
 11
1148.3566366659629
 21
464.49279568646409
  0
LINE
  8
_0-1_0_04____
  6
CONTINUOUS
 62
    4
 10
1148.3566366659629
 20
464.49279568646409
 11
1148.6983263170396
 21
464.33519546405682
  0
LINE
  8
_0-1_0_04____
  6
CONTINUOUS
 62
    4
 10
1148.6983263170396
 20
464.33519546405682
 11
1149.0460287558067
 21
464.19099642779372
  0
LINE
  8
_0-1_0_04____
  6
CONTINUOUS
 62
    4
 10
1149.0460287558067
 20
464.19099642779372
 11
1149.399038778769
 21
464.0603957562833
  0
LINE
  8
_0-1_0_04____
  6
CONTINUOUS
 62
    4
 10
1149.399038778769
 20
464.0603957562833
 11
1149.7568367622994
 21
463.94379592586205
  0
LINE
  8
_0-1_0_04____
  6
CONTINUOUS
 62
    4
 10
1149.7568367622994
 20
463.94379592586205
 11
1150.1189401987438
 21
463.84119577665581
  0
LINE
  8
_0-1_0_04____
  6
CONTINUOUS
 62
    4
 10
1150.1189401987438
 20
463.84119577665581
 11
1150.4848294644744
 21
463.75279596689586
  0
LINE
  8
_0-1_0_04____
  6
CONTINUOUS
 62
    4
 10
1150.4848294644744
 20
463.75279596689586
 11
1150.85383647197
 21
463.67869624576053
  0
LINE
  8
_0-1_0_04____
  6
CONTINUOUS
 62
    4
 10
1150.85383647197
 20
463.67869624576053
 11
1151.2254415976035
 21
463.61909611160689
  0
LINE
  8
_0-1_0_04____
  6
CONTINUOUS
 62
    4
 10
1151.2254415976035
 20
463.61909611160689
 11
1151.5991252177473
 21
463.57399556443494
  0
LINE
  8
_0-1_0_04____
  6
CONTINUOUS
 62
    4
 10
1151.5991252177473
 20
463.57399556443494
 11
1151.9742192448798
 21
463.54359642235011
  0
LINE
  8
_0-1_0_04____
  6
CONTINUOUS
 62
    4
 10
1151.9742192448798
 20
463.54359642235011
 11
1152.3502411713471
 21
463.52779545655119
  0
LINE
  8
_0-1_0_04____
  6
CONTINUOUS
 62
    4
 10
1152.3502411713471
 20
463.52779545655119
 11
1152.7266342575485
 21
463.5266958958394
  0
LINE
  8
_0-1_0_04____
  6
CONTINUOUS
 62
    4
 10
1152.7266342575485
 20
463.5266958958394
 11
1153.1027304159629
 21
463.54029542046624
  0
LINE
  8
_0-1_0_04____
  6
CONTINUOUS
 62
    4
 10
1153.1027304159629
 20
463.54029542046624
 11
1153.4780471389358
 21
463.56849544112748
  0
LINE
  8
_0-1_0_04____
  6
CONTINUOUS
 62
    4
 10
1153.4780471389358
 20
463.56849544112748
 11
1153.8520276868667
 21
463.61139570700152
  0
LINE
  8
_0-1_0_04____
  6
CONTINUOUS
 62
    4
 10
1153.8520276868667
 20
463.61139570700152
 11
1154.2239297402871
 21
463.6687955598573
  0
LINE
  8
_0-1_0_04____
  6
CONTINUOUS
 62
    4
 10
1154.2239297402871
 20
463.6687955598573
 11
1154.5934192554373
 21
463.74069615956898
  0
LINE
  8
_0-1_0_04____
  6
CONTINUOUS
 62
    4
 10
1154.5934192554373
 20
463.74069615956898
 11
1154.9597539128486
 21
463.82689568803113
  0
LINE
  8
_0-1_0_04____
  6
CONTINUOUS
 62
    4
 10
1154.9597539128486
 20
463.82689568803113
 11
1155.3224512048669
 21
463.92739646499223
  0
LINE
  8
_0-1_0_04____
  6
CONTINUOUS
 62
    4
 10
1155.3224512048669
 20
463.92739646499223
 11
1155.6809543918919
 21
464.04199551247257
  0
LINE
  8
_0-1_0_04____
  6
CONTINUOUS
 62
    4
 10
1155.6809543918919
 20
464.04199551247257
 11
1156.0347438502956
 21
464.17039590268519
  0
LINE
  8
_0-1_0_04____
  6
CONTINUOUS
 62
    4
 10
1156.0347438502956
 20
464.17039590268519
 11
1156.3832257245037
 21
464.31259647575587
  0
LINE
  8
_0-1_0_04____
  6
CONTINUOUS
 62
    4
 10
1156.3832257245037
 20
464.31259647575587
 11
1156.7259175068621
 21
464.46819591522217
  0
LINE
  8
_0-1_0_04____
  6
CONTINUOUS
 62
    4
 10
1156.7259175068621
 20
464.46819591522217
 11
1157.0622253417969
 21
464.63709563177986
  0
LINE
  8
_0-1_0_04____
  6
CONTINUOUS
 62
    4
 10
1157.0622253417969
 20
464.63709563177986
 11
1157.3917409536
 21
464.81899637789343
  0
LINE
  8
_0-1_0_04____
  6
CONTINUOUS
 62
    4
 10
1157.3917409536
 20
464.81899637789343
 11
1157.7139447186444
 21
465.01359542640478
  0
LINE
  8
_0-1_0_04____
  6
CONTINUOUS
 62
    4
 10
1157.7139447186444
 20
465.01359542640478
 11
1158.0282427813556
 21
465.22059584952694
  0
LINE
  8
_0-1_0_04____
  6
CONTINUOUS
 62
    4
 10
1158.0282427813556
 20
465.22059584952694
 11
1158.3342268660263
 21
465.43979582915438
  0
LINE
  8
_0-1_0_04____
  6
CONTINUOUS
 62
    4
 10
1158.3342268660263
 20
465.43979582915438
 11
1158.6314515809756
 21
465.67069661939468
  0
LINE
  8
_0-1_0_04____
  6
CONTINUOUS
 62
    4
 10
1158.6314515809756
 20
465.67069661939468
 11
1158.9194344185494
 21
465.91299665296401
  0
LINE
  8
_0-1_0_04____
  6
CONTINUOUS
 62
    4
 10
1158.9194344185494
 20
465.91299665296401
 11
1159.1977299870673
 21
466.16639668232688
  0
LINE
  8
_0-1_0_04____
  6
CONTINUOUS
 62
    4
 10
1159.1977299870673
 20
466.16639668232688
 11
1159.4659300108212
 21
466.43039564184238
  0
LINE
  8
_0-1_0_04____
  6
CONTINUOUS
 62
    4
 10
1159.4659300108212
 20
466.43039564184238
 11
1159.7236262141046
 21
466.70469660372351
  0
LINE
  8
_0-1_0_04____
  6
CONTINUOUS
 62
    4
 10
1159.7236262141046
 20
466.70469660372351
 11
1159.9704474371833
 21
466.98889593175937
  0
LINE
  8
_0-1_0_04____
  6
CONTINUOUS
 62
    4
 10
1159.9704474371833
 20
466.98889593175937
 11
1160.085247142895
 21
467.12989487519133
  0
LINE
  8
_0-1_0_04____
  6
CONTINUOUS
 62
    4
 10
1160.085247142895
 20
467.12989487519133
 11
1160.085247142895
 21
470.56189526738348
  0
LINE
  8
_0-1_0_04____
  6
CONTINUOUS
 62
    4
 10
1160.085247142895
 20
470.56189526738348
 11
1153.9259255898965
 21
470.56189526738348
  0
LINE
  8
_0-1_0_04____
  6
CONTINUOUS
 62
    4
 10
1153.9259255898965
 20
470.56189526738348
 11
1153.9259255898965
 21
469.02819597398911
  0
LINE
  8
_0-1_0_04____
  6
CONTINUOUS
 62
    4
 10
1153.9259255898965
 20
469.02819597398911
 11
1153.9171291042019
 21
468.97649574279785
  0
LINE
  8
_0-1_0_04____
  6
CONTINUOUS
 62
    4
 10
1153.9171291042019
 20
468.97649574279785
 11
1153.9062541239973
 21
468.92529657724742
  0
LINE
  8
_0-1_0_04____
  6
CONTINUOUS
 62
    4
 10
1153.9062541239973
 20
468.92529657724742
 11
1153.8933377652556
 21
468.87449640841101
  0
LINE
  8
_0-1_0_04____
  6
CONTINUOUS
 62
    4
 10
1153.8933377652556
 20
468.87449640841101
 11
1153.8784542599242
 21
468.8241949854671
  0
LINE
  8
_0-1_0_04____
  6
CONTINUOUS
 62
    4
 10
1153.8784542599242
 20
468.8241949854671
 11
1153.8616407239761
 21
468.7745964462693
  0
LINE
  8
_0-1_0_04____
  6
CONTINUOUS
 62
    4
 10
1153.8616407239761
 20
468.7745964462693
 11
1153.8428229254646
 21
468.72559640214246
  0
LINE
  8
_0-1_0_04____
  6
CONTINUOUS
 62
    4
 10
1153.8428229254646
 20
468.72559640214246
 11
1153.8221493282836
 21
468.67749642037052
  0
LINE
  8
_0-1_0_04____
  6
CONTINUOUS
 62
    4
 10
1153.8221493282836
 20
468.67749642037052
 11
1153.7996199324325
 21
468.63009700259647
  0
LINE
  8
_0-1_0_04____
  6
CONTINUOUS
 62
    4
 10
1153.7996199324325
 20
468.63009700259647
 11
1153.7752347379119
 21
468.58369507660734
  0
LINE
  8
_0-1_0_04____
  6
CONTINUOUS
 62
    4
 10
1153.7752347379119
 20
468.58369507660734
 11
1153.7490308606948
 21
468.53829528189999
  0
LINE
  8
_0-1_0_04____
  6
CONTINUOUS
 62
    4
 10
1153.7490308606948
 20
468.53829528189999
 11
1153.7210454167548
 21
468.49399504790438
  0
LINE
  8
_0-1_0_04____
  6
CONTINUOUS
 62
    4
 10
1153.7210454167548
 20
468.49399504790438
 11
1153.6914268699852
 21
468.45079669436893
  0
LINE
  8
_0-1_0_04____
  6
CONTINUOUS
 62
    4
 10
1153.6914268699852
 20
468.45079669436893
 11
1153.6600267564927
 21
468.40879533097547
  0
LINE
  8
_0-1_0_04____
  6
CONTINUOUS
 62
    4
 10
1153.6600267564927
 20
468.40879533097547
 11
1153.6270306561444
 21
468.36799559722078
  0
LINE
  8
_0-1_0_04____
  6
CONTINUOUS
 62
    4
 10
1153.6270306561444
 20
468.36799559722078
 11
1153.5925499168602
 21
468.32859699146161
  0
LINE
  8
_0-1_0_04____
  6
CONTINUOUS
 62
    4
 10
1153.5925499168602
 20
468.32859699146161
 11
1153.5564360747467
 21
468.29059487420159
  0
LINE
  8
_0-1_0_04____
  6
CONTINUOUS
 62
    4
 10
1153.5564360747467
 20
468.29059487420159
 11
1153.5189489416175
 21
468.25399620468551
  0
LINE
  8
_0-1_0_04____
  6
CONTINUOUS
 62
    4
 10
1153.5189489416175
 20
468.25399620468551
 11
1153.479940053579
 21
468.21889609259529
  0
LINE
  8
_0-1_0_04____
  6
CONTINUOUS
 62
    4
 10
1153.479940053579
 20
468.21889609259529
 11
1153.4396321064714
 21
468.18539660685769
  0
LINE
  8
_0-1_0_04____
  6
CONTINUOUS
 62
    4
 10
1153.4396321064714
 20
468.18539660685769
 11
1153.3981364482161
 21
468.15349542772447
  0
LINE
  8
_0-1_0_04____
  6
CONTINUOUS
 62
    4
 10
1153.3981364482161
 20
468.15349542772447
 11
1153.3553417308908
 21
468.12319487494392
  0
LINE
  8
_0-1_0_04____
  6
CONTINUOUS
 62
    4
 10
1153.3553417308908
 20
468.12319487494392
 11
1153.3113221864444
 21
468.09459701744288
  0
LINE
  8
_0-1_0_04____
  6
CONTINUOUS
 62
    4
 10
1153.3113221864444
 20
468.09459701744288
 11
1153.2663376266892
 21
468.0677969649031
  0
LINE
  8
_0-1_0_04____
  6
CONTINUOUS
 62
    4
 10
1153.2663376266892
 20
468.0677969649031
 11
1153.2202395877321
 21
468.04279703707311
  0
LINE
  8
_0-1_0_04____
  6
CONTINUOUS
 62
    4
 10
1153.2202395877321
 20
468.04279703707311
 11
1153.1732507654137
 21
468.01959491420433
  0
LINE
  8
_0-1_0_04____
  6
CONTINUOUS
 62
    4
 10
1153.1732507654137
 20
468.01959491420433
 11
1153.1253340437606
 21
467.99829498497218
  0
LINE
  8
_0-1_0_04____
  6
CONTINUOUS
 62
    4
 10
1153.1253340437606
 20
467.99829498497218
 11
1153.076637886666
 21
467.97879518044965
  0
LINE
  8
_0-1_0_04____
  6
CONTINUOUS
 62
    4
 10
1153.076637886666
 20
467.97879518044965
 11
1153.0272365260769
 21
467.96129499899371
  0
LINE
  8
_0-1_0_04____
  6
CONTINUOUS
 62
    4
 10
1153.0272365260769
 20
467.96129499899371
 11
1152.9772413099136
 21
467.94579676035289
  0
LINE
  8
_0-1_0_04____
  6
CONTINUOUS
 62
    4
 10
1152.9772413099136
 20
467.94579676035289
 11
1152.9266522381756
 21
467.93219607585183
  0
LINE
  8
_0-1_0_04____
  6
CONTINUOUS
 62
    4
 10
1152.9266522381756
 20
467.93219607585183
 11
1152.8754321948904
 21
467.92059501441747
  0
LINE
  8
_0-1_0_04____
  6
CONTINUOUS
 62
    4
 10
1152.8754321948904
 20
467.92059501441747
 11
1152.823952339791
 21
467.91099589579812
  0
LINE
  8
_0-1_0_04____
  6
CONTINUOUS
 62
    4
 10
1152.823952339791
 20
467.91099589579812
 11
1152.7720270930108
 21
467.90349614942397
  0
LINE
  8
_0-1_0_04____
  6
CONTINUOUS
 62
    4
 10
1152.7720270930108
 20
467.90349614942397
 11
1152.7199533823375
 21
467.89799602611652
  0
LINE
  8
_0-1_0_04____
  6
CONTINUOUS
 62
    4
 10
1152.7199533823375
 20
467.89799602611652
 11
1152.66761985985
 21
467.89459527505414
  0
LINE
  8
_0-1_0_04____
  6
CONTINUOUS
 62
    4
 10
1152.66761985985
 20
467.89459527505414
 11
1152.6152492213894
 21
467.89319646680678
  0
LINE
  8
_0-1_0_04____
  6
CONTINUOUS
 62
    4
 10
1152.6152492213894
 20
467.89319646680678
 11
1152.5628414669554
 21
467.8937949618778
  0
LINE
  8
_0-1_0_04____
  6
CONTINUOUS
 62
    4
 10
1152.5628414669554
 20
467.8937949618778
 11
1152.5104337125213
 21
467.89659489812078
  0
LINE
  8
_0-1_0_04____
  6
CONTINUOUS
 62
    4
 10
1152.5104337125213
 20
467.89659489812078
 11
1152.4582486539275
 21
467.90139677717883
  0
LINE
  8
_0-1_0_04____
  6
CONTINUOUS
 62
    4
 10
1152.4582486539275
 20
467.90139677717883
 11
1152.4063234071475
 21
467.90819595955509
  0
LINE
  8
_0-1_0_04____
  6
CONTINUOUS
 62
    4
 10
1152.4063234071475
 20
467.90819595955509
 11
1152.3546208562079
 21
467.91699708474653
  0
LINE
  8
_0-1_0_04____
  6
CONTINUOUS
 62
    4
 10
1152.3546208562079
 20
467.91699708474653
 11
1152.3033265809756
 21
467.92789526243462
  0
LINE
  8
_0-1_0_04____
  6
CONTINUOUS
 62
    4
 10
1152.3033265809756
 20
467.92789526243462
 11
1152.2525519293708
 21
467.94079538293789
  0
LINE
  8
_0-1_0_04____
  6
CONTINUOUS
 62
    4
 10
1152.2525519293708
 20
467.94079538293789
 11
1152.2023340173669
 21
467.95569512650769
  0
LINE
  8
_0-1_0_04____
  6
CONTINUOUS
 62
    4
 10
1152.2023340173669
 20
467.95569512650769
 11
1152.1526357289906
 21
467.97249706371417
  0
LINE
  8
_0-1_0_04____
  6
CONTINUOUS
 62
    4
 10
1152.1526357289906
 20
467.97249706371417
 11
1152.1037539920289
 21
467.99129630423886
  0
LINE
  8
_0-1_0_04____
  6
CONTINUOUS
 62
    4
 10
1152.1037539920289
 20
467.99129630423886
 11
1152.0555403425888
 21
468.01199541865168
  0
LINE
  8
_0-1_0_04____
  6
CONTINUOUS
 62
    4
 10
1152.0555403425888
 20
468.01199541865168
 11
1152.0082174765098
 21
468.03449697752251
  0
LINE
  8
_0-1_0_04____
  6
CONTINUOUS
 62
    4
 10
1152.0082174765098
 20
468.03449697752251
 11
1151.9618225097656
 21
468.05889609053332
  0
LINE
  8
_0-1_0_04____
  6
CONTINUOUS
 62
    4
 10
1151.9618225097656
 20
468.05889609053332
 11
1151.9164296743031
 21
468.0850953282536
  0
LINE
  8
_0-1_0_04____
  6
CONTINUOUS
 62
    4
 10
1151.9164296743031
 20
468.0850953282536
 11
1151.8721503180427
 21
468.11309701043206
  0
LINE
  8
_0-1_0_04____
  6
CONTINUOUS
 62
    4
 10
1151.8721503180427
 20
468.11309701043206
 11
1151.8288359770904
 21
468.14279674839332
  0
LINE
  8
_0-1_0_04____
  6
CONTINUOUS
 62
    4
 10
1151.8288359770904
 20
468.14279674839332
 11
1151.7868206952069
 21
468.17409711270716
  0
LINE
  8
_0-1_0_04____
  6
CONTINUOUS
 62
    4
 10
1151.7868206952069
 20
468.17409711270716
 11
1151.7461415883656
 21
468.20709553280392
  0
LINE
  8
_0-1_0_04____
  6
CONTINUOUS
 62
    4
 10
1151.7461415883656
 20
468.20709553280392
 11
1151.70672442462
 21
468.24159714982312
  0
LINE
  8
_0-1_0_04____
  6
CONTINUOUS
 62
    4
 10
1151.70672442462
 20
468.24159714982312
 11
1151.6686434359162
 21
468.27769707344669
  0
LINE
  8
_0-1_0_04____
  6
CONTINUOUS
 62
    4
 10
1151.6686434359162
 20
468.27769707344669
 11
1151.6321213180954
 21
468.31519580531761
  0
LINE
  8
_0-1_0_04____
  6
CONTINUOUS
 62
    4
 10
1151.6321213180954
 20
468.31519580531761
 11
1151.5970467232369
 21
468.35419541436272
  0
LINE
  8
_0-1_0_04____
  6
CONTINUOUS
 62
    4
 10
1151.5970467232369
 20
468.35419541436272
 11
1151.5634196513411
 21
468.394496402225
  0
LINE
  8
_0-1_0_04____
  6
CONTINUOUS
 62
    4
 10
1151.5634196513411
 20
468.394496402225
 11
1151.5315370301944
 21
468.43609644915603
  0
LINE
  8
_0-1_0_04____
  6
CONTINUOUS
 62
    4
 10
1151.5315370301944
 20
468.43609644915603
 11
1151.5013246278506
 21
468.47889580597746
  0
LINE
  8
_0-1_0_04____
  6
CONTINUOUS
 62
    4
 10
1151.5013246278506
 20
468.47889580597746
 11
1151.4727453283363
 21
468.52279704325906
  0
LINE
  8
_0-1_0_04____
  6
CONTINUOUS
 62
    4
 10
1151.4727453283363
 20
468.52279704325906
 11
1151.4459475955446
 21
468.56779552150414
  0
LINE
  8
_0-1_0_04____
  6
CONTINUOUS
 62
    4
 10
1151.4459475955446
 20
468.56779552150414
 11
1151.4209314294762
 21
468.61389588020938
  0
LINE
  8
_0-1_0_04____
  6
CONTINUOUS
 62
    4
 10
1151.4209314294762
 20
468.61389588020938
 11
1151.3977339461044
 21
468.66089630126953
  0
LINE
  8
_0-1_0_04____
  6
CONTINUOUS
 62
    4
 10
1151.3977339461044
 20
468.66089630126953
 11
1151.3763180294554
 21
468.70879678468452
  0
LINE
  8
_0-1_0_04____
  6
CONTINUOUS
 62
    4
 10
1151.3763180294554
 20
468.70879678468452
 11
1151.3569434913429
 21
468.75749526152742
  0
LINE
  8
_0-1_0_04____
  6
CONTINUOUS
 62
    4
 10
1151.3569434913429
 20
468.75749526152742
 11
1151.3394247519004
 21
468.80689662211648
  0
LINE
  8
_0-1_0_04____
  6
CONTINUOUS
 62
    4
 10
1151.3394247519004
 20
468.80689662211648
 11
1151.3238360430744
 21
468.85689647777667
  0
LINE
  8
_0-1_0_04____
  6
CONTINUOUS
 62
    4
 10
1151.3238360430744
 20
468.85689647777667
 11
1151.3102515968117
 21
468.90759689743453
  0
LINE
  8
_0-1_0_04____
  6
CONTINUOUS
 62
    4
 10
1151.3102515968117
 20
468.90759689743453
 11
1151.2987456450592
 21
468.95869631380651
  0
LINE
  8
_0-1_0_04____
  6
CONTINUOUS
 62
    4
 10
1151.2987456450592
 20
468.95869631380651
 11
1151.2891326079498
 21
469.01019704664077
  0
LINE
  8
_0-1_0_04____
  6
CONTINUOUS
 62
    4
 10
1151.2891326079498
 20
469.01019704664077
 11
1151.286237562025
 21
469.03029534623425
  0
LINE
  8
_0-1_0_04____
  6
CONTINUOUS
 62
    4
 10
1151.286237562025
 20
469.03029534623425
 11
1151.286237562025
 21
469.02819597398911
  0
LINE
  8
_0-1_0_04____
  6
CONTINUOUS
 62
    4
 10
1151.286237562025
 20
469.02819597398911
 11
1151.2853467786636
 21
469.03589521872027
  0
LINE
  8
_0-1_0_04____
  6
CONTINUOUS
 62
    4
 10
1151.2853467786636
 20
469.03589521872027
 11
1151.281635181324
 21
469.06209677618904
  0
LINE
  8
_0-1_0_04____
  6
CONTINUOUS
 62
    4
 10
1151.281635181324
 20
469.06209677618904
 11
1151.2761420172615
 21
469.11419600409431
  0
LINE
  8
_0-1_0_04____
  6
CONTINUOUS
 62
    4
 10
1151.2761420172615
 20
469.11419600409431
 11
1151.2736181310706
 21
469.1475957406534
  0
LINE
  8
_0-1_0_04____
  6
CONTINUOUS
 62
    4
 10
1151.2736181310706
 20
469.1475957406534
 11
1151.2853467786636
 21
469.03589521872027
  0
LINE
  8
_0-1_0_04____
  6
CONTINUOUS
 62
    4
 10
1151.2853467786636
 20
469.03589521872027
 11
1151.286237562025
 21
469.03029534623425
  0
LINE
  8
_0-1_0_04____
  6
CONTINUOUS
 62
    4
 10
1151.286237562025
 20
469.03029534623425
 11
1151.286237562025
 21
472.64169579583245
  0
LINE
  8
_0-1_0_04____
  6
CONTINUOUS
 62
    4
 10
1151.286237562025
 20
472.64169579583245
 11
1160.085247142895
 21
472.64169579583245
  0
LINE
  8
_0-1_0_04____
  6
CONTINUOUS
 62
    4
 10
1160.085247142895
 20
472.64169579583245
 11
1160.085247142895
 21
480.66429488723344
  0
LINE
  8
_0-1_0_04____
  6
CONTINUOUS
 62
    4
 10
1160.085247142895
 20
480.66429488723344
 11
1159.9567516430002
 21
480.95239603197251
  0
LINE
  8
_0-1_0_04____
  6
CONTINUOUS
 62
    4
 10
1159.9567516430002
 20
480.95239603197251
 11
1159.8171213510875
 21
481.23529630093958
  0
LINE
  8
_0-1_0_04____
  6
CONTINUOUS
 62
    4
 10
1159.8171213510875
 20
481.23529630093958
 11
1159.6666531949431
 21
481.51249694824219
  0
LINE
  8
_0-1_0_04____
  6
CONTINUOUS
 62
    4
 10
1159.6666531949431
 20
481.51249694824219
 11
1159.505421406514
 21
481.78369640659645
  0
LINE
  8
_0-1_0_04____
  6
CONTINUOUS
 62
    4
 10
1159.505421406514
 20
481.78369640659645
 11
1159.3337229135875
 21
482.04829618093129
  0
LINE
  8
_0-1_0_04____
  6
CONTINUOUS
 62
    4
 10
1159.3337229135875
 20
482.04829618093129
 11
1159.1518175279771
 21
482.30609677288987
  0
LINE
  8
_0-1_0_04____
  6
CONTINUOUS
 62
    4
 10
1159.1518175279771
 20
482.30609677288987
 11
1158.9599279455238
 21
482.55649504790438
  0
LINE
  8
_0-1_0_04____
  6
CONTINUOUS
 62
    4
 10
1158.9599279455238
 20
482.55649504790438
 11
1158.7585366738808
 21
482.79929614711449
  0
LINE
  8
_0-1_0_04____
  6
CONTINUOUS
 62
    4
 10
1158.7585366738808
 20
482.79929614711449
 11
1158.547829292916
 21
483.03399668513117
  0
LINE
  8
_0-1_0_04____
  6
CONTINUOUS
 62
    4
 10
1158.547829292916
 20
483.03399668513117
 11
1158.3280284984689
 21
483.26039484384899
  0
LINE
  8
_0-1_0_04____
  6
CONTINUOUS
 62
    4
 10
1158.3280284984689
 20
483.26039484384899
 11
1158.0996539141681
 21
483.47799651687211
  0
LINE
  8
_0-1_0_04____
  6
CONTINUOUS
 62
    4
 10
1158.0996539141681
 20
483.47799651687211
 11
1157.8629282358531
 21
483.68649549741997
  0
LINE
  8
_0-1_0_04____
  6
CONTINUOUS
 62
    4
 10
1157.8629282358531
 20
483.68649549741997
 11
1157.6182226232581
 21
483.88559485770566
  0
LINE
  8
_0-1_0_04____
  6
CONTINUOUS
 62
    4
 10
1157.6182226232581
 20
483.88559485770566
 11
1157.3659453520904
 21
484.07499535019332
  0
LINE
  8
_0-1_0_04____
  6
CONTINUOUS
 62
    4
 10
1157.3659453520904
 20
484.07499535019332
 11
1157.1064304661106
 21
484.25439540759942
  0
LINE
  8
_0-1_0_04____
  6
CONTINUOUS
 62
    4
 10
1157.1064304661106
 20
484.25439540759942
 11
1156.8402347049196
 21
484.42359553156672
  0
LINE
  8
_0-1_0_04____
  6
CONTINUOUS
 62
    4
 10
1156.8402347049196
 20
484.42359553156672
 11
1156.5675436483848
 21
484.58219672538144
  0
LINE
  8
_0-1_0_04____
  6
CONTINUOUS
 62
    4
 10
1156.5675436483848
 20
484.58219672538144
 11
1156.2888398041596
 21
484.7300946003682
  0
LINE
  8
_0-1_0_04____
  6
CONTINUOUS
 62
    4
 10
1156.2888398041596
 20
484.7300946003682
 11
1156.0046427958723
 21
484.86699686823664
  0
LINE
  8
_0-1_0_04____
  6
CONTINUOUS
 62
    4
 10
1156.0046427958723
 20
484.86699686823664
 11
1155.7153237832558
 21
484.99269475163641
  0
LINE
  8
_0-1_0_04____
  6
CONTINUOUS
 62
    4
 10
1155.7153237832558
 20
484.99269475163641
 11
1155.4213281579919
 21
485.10709546063401
  0
LINE
  8
_0-1_0_04____
  6
CONTINUOUS
 62
    4
 10
1155.4213281579919
 20
485.10709546063401
 11
1155.1230270798142
 21
485.2097953590187
  0
LINE
  8
_0-1_0_04____
  6
CONTINUOUS
 62
    4
 10
1155.1230270798142
 20
485.2097953590187
 11
1154.8210515202704
 21
485.30089651571734
  0
LINE
  8
_0-1_0_04____
  6
CONTINUOUS
 62
    4
 10
1154.8210515202704
 20
485.30089651571734
 11
1154.5156241752006
 21
485.38009736344617
  0
LINE
  8
_0-1_0_04____
  6
CONTINUOUS
 62
    4
 10
1154.5156241752006
 20
485.38009736344617
 11
1154.2074502480996
 21
485.44729583327836
  0
LINE
  8
_0-1_0_04____
  6
CONTINUOUS
 62
    4
 10
1154.2074502480996
 20
485.44729583327836
 11
1153.8968266667548
 21
485.50249656471044
  0
LINE
  8
_0-1_0_04____
  6
CONTINUOUS
 62
    4
 10
1153.8968266667548
 20
485.50249656471044
 11
1153.58434728674
 21
485.54549541988888
  0
LINE
  8
_0-1_0_04____
  6
CONTINUOUS
 62
    4
 10
1153.58434728674
 20
485.54549541988888
 11
1153.2703461518158
 21
485.57619496938344
  0
LINE
  8
_0-1_0_04____
  6
CONTINUOUS
 62
    4
 10
1153.2703461518158
 20
485.57619496938344
 11
1152.9554542335304
 21
485.59469728212105
  0
LINE
  8
_0-1_0_04____
  6
CONTINUOUS
 62
    4
 10
1152.9554542335304
 20
485.59469728212105
 11
1152.6400426916175
 21
485.60089564967797
  0
LINE
  8
_0-1_0_04____
  6
CONTINUOUS
 62
    4
 10
1152.6400426916175
 20
485.60089564967797
 11
1152.3246311497044
 21
485.59479471155117
  0
LINE
  8
_0-1_0_04____
  6
CONTINUOUS
 62
    4
 10
1152.3246311497044
 20
485.59479471155117
 11
1152.0097392314192
 21
485.57639446774044
  0
LINE
  8
_0-1_0_04____
  6
CONTINUOUS
 62
    4
 10
1152.0097392314192
 20
485.57639446774044
 11
1151.695738096495
 21
485.54569491824589
  0
LINE
  8
_0-1_0_04____
  6
CONTINUOUS
 62
    4
 10
1151.695738096495
 20
485.54569491824589
 11
1151.3832216005069
 21
485.50279813199427
  0
LINE
  8
_0-1_0_04____
  6
CONTINUOUS
 62
    4
 10
1151.3832216005069
 20
485.50279813199427
 11
1151.072523787215
 21
485.44769482999232
  0
LINE
  8
_0-1_0_04____
  6
CONTINUOUS
 62
    4
 10
1151.072523787215
 20
485.44769482999232
 11
1150.7643498601142
 21
485.38049636016024
  0
LINE
  8
_0-1_0_04____
  6
CONTINUOUS
 62
    4
 10
1150.7643498601142
 20
485.38049636016024
 11
1150.4589225150444
 21
485.30139758135817
  0
LINE
  8
_0-1_0_04____
  6
CONTINUOUS
 62
    4
 10
1150.4589225150444
 20
485.30139758135817
 11
1150.1569469555002
 21
485.21039385408972
  0
LINE
  8
_0-1_0_04____
  6
CONTINUOUS
 62
    4
 10
1150.1569469555002
 20
485.21039385408972
 11
1149.8586458773225
 21
485.10769395570503
  0
LINE
  8
_0-1_0_04____
  6
CONTINUOUS
 62
    4
 10
1149.8586458773225
 20
485.10769395570503
 11
1149.5645389041383
 21
484.99339531563419
  0
LINE
  8
_0-1_0_04____
  6
CONTINUOUS
 62
    4
 10
1149.5645389041383
 20
484.99339531563419
 11
1149.2752198915225
 21
484.86779486166461
  0
LINE
  8
_0-1_0_04____
  6
CONTINUOUS
 62
    4
 10
1149.2752198915225
 20
484.86779486166461
 11
1148.9909486512881
 21
484.73089723329292
  0
LINE
  8
_0-1_0_04____
  6
CONTINUOUS
 62
    4
 10
1148.9909486512881
 20
484.73089723329292
 11
1148.7123190390098
 21
484.58309678773628
  0
LINE
  8
_0-1_0_04____
  6
CONTINUOUS
 62
    4
 10
1148.7123190390098
 20
484.58309678773628
 11
1148.4396279824746
 21
484.42449559392156
  0
LINE
  8
_0-1_0_04____
  6
CONTINUOUS
 62
    4
 10
1148.4396279824746
 20
484.42449559392156
 11
1148.1733208733638
 21
484.25539521913277
  0
LINE
  8
_0-1_0_04____
  6
CONTINUOUS
 62
    4
 10
1148.1733208733638
 20
484.25539521913277
 11
1147.9137317554373
 21
484.07599516172661
  0
LINE
  8
_0-1_0_04____
  6
CONTINUOUS
 62
    4
 10
1147.9137317554373
 20
484.07599516172661
 11
1147.6614544842694
 21
483.88669673816582
  0
LINE
  8
_0-1_0_04____
  6
CONTINUOUS
 62
    4
 10
1147.6614544842694
 20
483.88669673816582
 11
1147.4167488716744
 21
483.68759505813188
  0
LINE
  8
_0-1_0_04____
  6
CONTINUOUS
 62
    4
 10
1147.4167488716744
 20
483.68759505813188
 11
1147.1799489614125
 21
483.47919582676246
  0
LINE
  8
_0-1_0_04____
  6
CONTINUOUS
 62
    4
 10
1147.1799489614125
 20
483.47919582676246
 11
1146.9515372611381
 21
483.26159647348766
  0
LINE
  8
_0-1_0_04____
  6
CONTINUOUS
 62
    4
 10
1146.9515372611381
 20
483.26159647348766
 11
1146.7317364666912
 21
483.03539549337847
  0
LINE
  8
_0-1_0_04____
  6
CONTINUOUS
 62
    4
 10
1146.7317364666912
 20
483.03539549337847
 11
1146.5208435058594
 21
482.80069495536191
  0
LINE
  8
_0-1_0_04____
  6
CONTINUOUS
 62
    4
 10
1146.5208435058594
 20
482.80069495536191
 11
1146.3194522342164
 21
482.5578961759
  0
LINE
  8
_0-1_0_04____
  6
CONTINUOUS
 62
    4
 10
1146.3194522342164
 20
482.5578961759
 11
1146.1275255357896
 21
482.30749558113712
  0
LINE
  8
_0-1_0_04____
  6
CONTINUOUS
 62
    4
 10
1146.1275255357896
 20
482.30749558113712
 11
1145.9455459182327
 21
482.04979705810547
  0
LINE
  8
_0-1_0_04____
  6
CONTINUOUS
 62
    4
 10
1145.9455459182327
 20
482.04979705810547
 11
1145.7738474253063
 21
481.78519496402225
  0
LINE
  8
_0-1_0_04____
  6
CONTINUOUS
 62
    4
 10
1145.7738474253063
 20
481.78519496402225
 11
1145.6125414049302
 21
481.51409525484655
  0
LINE
  8
_0-1_0_04____
  6
CONTINUOUS
 62
    4
 10
1145.6125414049302
 20
481.51409525484655
 11
1145.4619247848923
 21
481.23689692729226
  0
LINE
  8
_0-1_0_04____
  6
CONTINUOUS
 62
    4
 10
1145.4619247848923
 20
481.23689692729226
 11
1145.3222202610325
 21
480.9539966583252
  0
LINE
  8
_0-1_0_04____
  6
CONTINUOUS
 62
    4
 10
1145.3222202610325
 20
480.9539966583252
 11
1145.1937247611381
 21
480.66599526276457
  0
LINE
  8
_0-1_0_04____
  6
CONTINUOUS
 62
    4
 10
1145.1937247611381
 20
480.66599526276457
 11
1145.1633267789275
 21
480.59329666962492
  0
LINE
  8
_0-1_0_04____
  6
CONTINUOUS
 62
    4
 10
1151.3041274612015
 20
479.84779682674923
 11
1151.3239473909944
 21
479.89889624312121
  0
LINE
  8
_0-1_0_04____
  6
CONTINUOUS
 62
    4
 10
1151.3239473909944
 20
479.89889624312121
 11
1151.3456231194575
 21
479.94929509549524
  0
LINE
  8
_0-1_0_04____
  6
CONTINUOUS
 62
    4
 10
1151.3456231194575
 20
479.94929509549524
 11
1151.3693402264569
 21
479.99879620526292
  0
LINE
  8
_0-1_0_04____
  6
CONTINUOUS
 62
    4
 10
1151.3693402264569
 20
479.99879620526292
 11
1151.3950244800467
 21
480.04729518374882
  0
LINE
  8
_0-1_0_04____
  6
CONTINUOUS
 62
    4
 10
1151.3950244800467
 20
480.04729518374882
 11
1151.4225274163325
 21
480.09469692127129
  0
LINE
  8
_0-1_0_04____
  6
CONTINUOUS
 62
    4
 10
1151.4225274163325
 20
480.09469692127129
 11
1151.4519232672615
 21
480.14109652751199
  0
LINE
  8
_0-1_0_04____
  6
CONTINUOUS
 62
    4
 10
1151.4519232672615
 20
480.14109652751199
 11
1151.4831378008869
 21
480.18619707468395
  0
LINE
  8
_0-1_0_04____
  6
CONTINUOUS
 62
    4
 10
1151.4831378008869
 20
480.18619707468395
 11
1151.516022553315
 21
480.23009599221723
  0
LINE
  8
_0-1_0_04____
  6
CONTINUOUS
 62
    4
 10
1151.516022553315
 20
480.23009599221723
 11
1151.5506517564927
 21
480.2726958506816
  0
LINE
  8
_0-1_0_04____
  6
CONTINUOUS
 62
    4
 10
1151.5506517564927
 20
480.2726958506816
 11
1151.5868398305531
 21
480.31389690089867
  0
LINE
  8
_0-1_0_04____
  6
CONTINUOUS
 62
    4
 10
1151.5868398305531
 20
480.31389690089867
 11
1151.6247352393898
 21
480.35359707394161
  0
LINE
  8
_0-1_0_04____
  6
CONTINUOUS
 62
    4
 10
1151.6247352393898
 20
480.35359707394161
 11
1151.6641524031356
 21
480.39179636981032
  0
LINE
  8
_0-1_0_04____
  6
CONTINUOUS
 62
    4
 10
1151.6641524031356
 20
480.39179636981032
 11
1151.7049428578969
 21
480.4283950393264
  0
LINE
  8
_0-1_0_04____
  6
CONTINUOUS
 62
    4
 10
1151.7049428578969
 20
480.4283950393264
 11
1151.7472179515939
 21
480.46339540223823
  0
LINE
  8
_0-1_0_04____
  6
CONTINUOUS
 62
    4
 10
1151.7472179515939
 20
480.46339540223823
 11
1151.7908292203338
 21
480.49669538961871
  0
LINE
  8
_0-1_0_04____
  6
CONTINUOUS
 62
    4
 10
1151.7908292203338
 20
480.49669538961871
 11
1151.8356282002214
 21
480.52829500146817
  0
LINE
  8
_0-1_0_04____
  6
CONTINUOUS
 62
    4
 10
1151.8356282002214
 20
480.52829500146817
 11
1151.8817262391788
 21
480.55809680835625
  0
LINE
  8
_0-1_0_04____
  6
CONTINUOUS
 62
    4
 10
1151.8817262391788
 20
480.55809680835625
 11
1151.9289377573375
 21
480.58609617078628
  0
LINE
  8
_0-1_0_04____
  6
CONTINUOUS
 62
    4
 10
1151.9289377573375
 20
480.58609617078628
 11
1151.9772256387246
 21
480.61219565932817
  0
LINE
  8
_0-1_0_04____
  6
CONTINUOUS
 62
    4
 10
1151.9772256387246
 20
480.61219565932817
 11
1152.0265527673669
 21
480.63629552480336
  0
LINE
  8
_0-1_0_04____
  6
CONTINUOUS
 62
    4
 10
1152.0265527673669
 20
480.63629552480336
 11
1152.0766222154771
 21
480.65849551639042
  0
LINE
  8
_0-1_0_04____
  6
CONTINUOUS
 62
    4
 10
1152.0766222154771
 20
480.65849551639042
 11
1152.1276195629221
 21
480.67879563408928
  0
LINE
  8
_0-1_0_04____
  6
CONTINUOUS
 62
    4
 10
1152.1276195629221
 20
480.67879563408928
 11
1152.1794334617821
 21
480.69699637954301
  0
LINE
  8
_0-1_0_04____
  6
CONTINUOUS
 62
    4
 10
1152.1794334617821
 20
480.69699637954301
 11
1152.2318412162163
 21
480.71309543300316
  0
LINE
  8
_0-1_0_04____
  6
CONTINUOUS
 62
    4
 10
1152.2318412162163
 20
480.71309543300316
 11
1152.2848428262246
 21
480.72719486339679
  0
LINE
  8
_0-1_0_04____
  6
CONTINUOUS
 62
    4
 10
1152.2848428262246
 20
480.72719486339679
 11
1152.3384382918075
 21
480.73919492154505
  0
LINE
  8
_0-1_0_04____
  6
CONTINUOUS
 62
    4
 10
1152.3384382918075
 20
480.73919492154505
 11
1152.3923306851775
 21
480.74909560744828
  0
LINE
  8
_0-1_0_04____
  6
CONTINUOUS
 62
    4
 10
1152.3923306851775
 20
480.74909560744828
 11
1152.4467427021746
 21
480.75689692110632
  0
LINE
  8
_0-1_0_04____
  6
CONTINUOUS
 62
    4
 10
1152.4467427021746
 20
480.75689692110632
 11
1152.5012289511192
 21
480.76249679359228
  0
LINE
  8
_0-1_0_04____
  6
CONTINUOUS
 62
    4
 10
1152.5012289511192
 20
480.76249679359228
 11
1152.556049243824
 21
480.76599497408483
  0
LINE
  8
_0-1_0_04____
  6
CONTINUOUS
 62
    4
 10
1152.556049243824
 20
480.76599497408483
 11
1152.6108324205552
 21
480.76729635290195
  0
LINE
  8
_0-1_0_04____
  6
CONTINUOUS
 62
    4
 10
1152.6108324205552
 20
480.76729635290195
 11
1152.6657269452069
 21
480.76649603972567
  0
LINE
  8
_0-1_0_04____
  6
CONTINUOUS
 62
    4
 10
1152.6657269452069
 20
480.76649603972567
 11
1152.7205472379119
 21
480.76349660512562
  0
LINE
  8
_0-1_0_04____
  6
CONTINUOUS
 62
    4
 10
1152.7205472379119
 20
480.76349660512562
 11
1152.7751448347763
 21
480.75839547853218
  0
LINE
  8
_0-1_0_04____
  6
CONTINUOUS
 62
    4
 10
1152.7751448347763
 20
480.75839547853218
 11
1152.8295197358002
 21
480.75109523051492
  0
LINE
  8
_0-1_0_04____
  6
CONTINUOUS
 62
    4
 10
1152.8295197358002
 20
480.75109523051492
 11
1152.8836348250106
 21
480.74169561025258
  0
LINE
  8
_0-1_0_04____
  6
CONTINUOUS
 62
    4
 10
1152.8836348250106
 20
480.74169561025258
 11
1152.9372302905936
 21
480.73019661774504
  0
LINE
  8
_0-1_0_04____
  6
CONTINUOUS
 62
    4
 10
1152.9372302905936
 20
480.73019661774504
 11
1152.9903432485219
 21
480.71659593324409
  0
LINE
  8
_0-1_0_04____
  6
CONTINUOUS
 62
    4
 10
1152.9903432485219
 20
480.71659593324409
 11
1153.0429365828231
 21
480.70089587649784
  0
LINE
  8
_0-1_0_04____
  6
CONTINUOUS
 62
    4
 10
1153.0429365828231
 20
480.70089587649784
 11
1153.0948247136298
 21
480.68309644750644
  0
LINE
  8
_0-1_0_04____
  6
CONTINUOUS
 62
    4
 10
1153.0948247136298
 20
480.68309644750644
 11
1153.146044756915
 21
480.66339714462691
  0
LINE
  8
_0-1_0_04____
  6
CONTINUOUS
 62
    4
 10
1153.146044756915
 20
480.66339714462691
 11
1153.1964482487861
 21
480.64159614975387
  0
LINE
  8
_0-1_0_04____
  6
CONTINUOUS
 62
    4
 10
1153.1964482487861
 20
480.64159614975387
 11
1153.2459238413219
 21
480.61789528099268
  0
LINE
  8
_0-1_0_04____
  6
CONTINUOUS
 62
    4
 10
1153.2459238413219
 20
480.61789528099268
 11
1153.2944344185494
 21
480.59219710891313
  0
LINE
  8
_0-1_0_04____
  6
CONTINUOUS
 62
    4
 10
1153.2944344185494
 20
480.59219710891313
 11
1153.3418315165754
 21
480.56469649237556
  0
LINE
  8
_0-1_0_04____
  6
CONTINUOUS
 62
    4
 10
1153.3418315165754
 20
480.56469649237556
 11
1153.3882264833194
 21
480.5352960019498
  0
LINE
  8
_0-1_0_04____
  6
CONTINUOUS
 62
    4
 10
1153.3882264833194
 20
480.5352960019498
 11
1153.4333223909944
 21
480.50419513599297
  0
LINE
  8
_0-1_0_04____
  6
CONTINUOUS
 62
    4
 10
1153.4333223909944
 20
480.50419513599297
 11
1153.4772305875213
 21
480.47119671589621
  0
LINE
  8
_0-1_0_04____
  6
CONTINUOUS
 62
    4
 10
1153.4772305875213
 20
480.47119671589621
 11
1153.5198397249787
 21
480.43659534969845
  0
LINE
  8
_0-1_0_04____
  6
CONTINUOUS
 62
    4
 10
1153.5198397249787
 20
480.43659534969845
 11
1153.5610384554475
 21
480.40039567689644
  0
LINE
  8
_0-1_0_04____
  6
CONTINUOUS
 62
    4
 10
1153.5610384554475
 20
480.40039567689644
 11
1153.6007525469806
 21
480.36249562856312
  0
LINE
  8
_0-1_0_04____
  6
CONTINUOUS
 62
    4
 10
1153.6007525469806
 20
480.36249562856312
 11
1153.6389448836044
 21
480.32309702280406
  0
LINE
  8
_0-1_0_04____
  6
CONTINUOUS
 62
    4
 10
1153.6389448836044
 20
480.32309702280406
 11
1153.6755412333723
 21
480.28229496930101
  0
LINE
  8
_0-1_0_04____
  6
CONTINUOUS
 62
    4
 10
1153.6755412333723
 20
480.28229496930101
 11
1153.7105415962837
 21
480.23999667812035
  0
LINE
  8
_0-1_0_04____
  6
CONTINUOUS
 62
    4
 10
1153.7105415962837
 20
480.23999667812035
 11
1153.7438346244194
 21
480.19639700812263
  0
LINE
  8
_0-1_0_04____
  6
CONTINUOUS
 62
    4
 10
1153.7438346244194
 20
480.19639700812263
 11
1153.7754203177788
 21
480.15159570848618
  0
LINE
  8
_0-1_0_04____
  6
CONTINUOUS
 62
    4
 10
1153.7754203177788
 20
480.15159570848618
 11
1153.805224444415
 21
480.10549534978094
  0
LINE
  8
_0-1_0_04____
  6
CONTINUOUS
 62
    4
 10
1153.805224444415
 20
480.10549534978094
 11
1153.8332470043283
 21
480.05829543036384
  0
LINE
  8
_0-1_0_04____
  6
CONTINUOUS
 62
    4
 10
1153.8332470043283
 20
480.05829543036384
 11
1153.8592281857054
 21
480.00999595023495
  0
LINE
  8
_0-1_0_04____
  6
CONTINUOUS
 62
    4
 10
1153.8592281857054
 20
480.00999595023495
 11
1153.8834278003592
 21
479.9607964077511
  0
LINE
  8
_0-1_0_04____
  6
CONTINUOUS
 62
    4
 10
1153.8834278003592
 20
479.9607964077511
 11
1153.9056231524494
 21
479.91059705373402
  0
LINE
  8
_0-1_0_04____
  6
CONTINUOUS
 62
    4
 10
1153.9056231524494
 20
479.91059705373402
 11
1153.9258513579498
 21
479.85959506679222
  0
LINE
  8
_0-1_0_04____
  6
CONTINUOUS
 62
    4
 10
1153.9258513579498
 20
479.85959506679222
 11
1153.9258513579498
 21
476.83389627611314
  0
LINE
  8
_0-1_0_04____
  6
CONTINUOUS
 62
    4
 10
1153.9258513579498
 20
476.83389627611314
 11
1151.286237562025
 21
476.83389627611314
  0
LINE
  8
_0-1_0_04____
  6
CONTINUOUS
 62
    4
 10
1151.286237562025
 20
476.83389627611314
 11
1151.2866458377321
 21
479.79649559227198
  0
LINE
  8
_0-1_0_04____
  6
CONTINUOUS
 62
    4
 10
1151.2866458377321
 20
479.79649559227198
 11
1151.3041274612015
 21
479.84779682674923
  0
LINE
  8
_0-1_0_04____
  6
CONTINUOUS
 62
    6
 10
1852.9938156540331
 20
1298.8159740551098
 11
1852.9938156540331
 21
450.81609593210993
  0
LINE
  8
_0-1_0_04____
  6
CONTINUOUS
 62
    6
 10
632.99383588739352
 20
1298.8159740551098
 11
1852.9938156540331
 21
1298.8159740551098
  0
LINE
  8
_0-1_0_04____
  6
CONTINUOUS
 62
    6
 10
632.99383588739352
 20
450.81599618293149
 11
1852.9938156540331
 21
450.81599618293149
  0
LINE
  8
_0-1_0_04____
  6
CONTINUOUS
 62
    6
 10
632.99393592654042
 20
1298.8159740551098
 11
632.99393592654042
 21
450.81609593210993
  0
LINE
  8
_0-3_0_10___F
  6
CONTINUOUS
 62
    4
 10
638.39393628610151
 20
478.71599625252384
 11
1034.269928803315
 21
478.71599625252384
  0
LINE
  8
_0-3_0_10___F
  6
CONTINUOUS
 62
    4
 10
1441.2042648727829
 20
478.71599625252384
 11
1808.4710528399494
 21
478.71599625252384
  0
LINE
  8
_0-3_0_10___F
  6
CONTINUOUS
 62
    4
 10
638.39393628610151
 20
467.46599625252384
 11
1034.269928803315
 21
467.46599625252384
  0
LINE
  8
_0-3_0_10___F
  6
CONTINUOUS
 62
    4
 10
638.39393628610151
 20
489.96599393277552
 11
1034.269928803315
 21
489.96599393277552
  0
LINE
  8
_0-5_0_20__
  6
CONTINUOUS
 62
    3
 10
1808.4710528399494
 20
501.21599393277552
 11
1808.4710528399494
 21
456.21599625252384
  0
LINE
  8
_0-5_0_20__
  6
CONTINUOUS
 62
    3
 10
1034.269928803315
 20
501.21599393277552
 11
1034.269928803315
 21
456.21599625252384
  0
LINE
  8
_0-5_0_20__
  6
CONTINUOUS
 62
    3
 10
1534.2042005384292
 20
501.21599393277552
 11
1534.2042005384292
 21
456.21599625252384
  0
LINE
  8
_0-5_0_20__
  6
CONTINUOUS
 62
    3
 10
1495.2042203336148
 20
501.21599393277552
 11
1495.2042203336148
 21
456.21599625252384
  0
LINE
  8
_0-5_0_20__
  6
CONTINUOUS
 62
    3
 10
1441.2042648727829
 20
501.21599393277552
 11
1441.2042648727829
 21
456.21599625252384
  0
LINE
  8
_0-5_0_20__
  6
CONTINUOUS
 62
    3
 10
1402.2042104360221
 20
501.21599393277552
 11
1402.2042104360221
 21
456.21599625252384
  0
LINE
  8
_0-5_0_20__
  6
CONTINUOUS
 62
    3
 10
1363.2042302312079
 20
501.21599393277552
 11
1363.2042302312079
 21
456.21599625252384
  0
LINE
  8
_0-5_0_20__
  6
CONTINUOUS
 62
    3
 10
1324.2042500263933
 20
501.21599393277552
 11
1324.2042500263933
 21
456.21599625252384
  0
LINE
  8
_0-5_0_20__
  6
CONTINUOUS
 62
    3
 10
638.39393628610151
 20
501.21599393277552
 11
1847.593812684755
 21
501.21599393277552
  0
LINE
  8
_0-6_0_24__
  6
CONTINUOUS
 62
    3
 10
638.39393628610151
 20
456.21599625252384
 11
1847.593812684755
 21
456.21599625252384
  0
LINE
  8
_0-6_0_24__
  6
CONTINUOUS
 62
    6
 10
1847.593812684755
 20
1293.4159710858321
 11
1847.593812684755
 21
456.21599625252384
  0
LINE
  8
_0-6_0_24__
  6
CONTINUOUS
 62
    6
 10
638.39393628610151
 20
456.21599625252384
 11
1847.593812684755
 21
456.21599625252384
  0
LINE
  8
_0-6_0_24__
  6
CONTINUOUS
 62
    6
 10
638.39393628610151
 20
1293.4159710858321
 11
638.39393628610151
 21
456.21599625252384
  0
LINE
  8
_0-6_0_24__
  6
CONTINUOUS
 62
    6
 10
638.39393628610151
 20
1293.4159710858321
 11
1847.593812684755
 21
1293.4159710858321
  0
LINE
  8
_0-0_0
  6
CONTINUOUS
 62
    7
 10
1422.6807178119918
 20
1105.7090731612464
 11
1415.4970147611225
 21
1129.6547285182662
  0
LINE
  8
_0-0_0
  6
CONTINUOUS
 62
    7
 10
1530.4361604748512
 20
1164.1365031623156
 11
1415.4970147611341
 21
1129.6547285182701
  0
LINE
  8
_0-0_0
  6
CONTINUOUS
 62
    7
 10
1395.9573682378073
 20
1090.3838460002803
 11
1393.9459313836246
 21
1097.0886295002433
  0
LINE
  8
_0-0_0
  6
CONTINUOUS
 62
    7
 10
1397.9688032878053
 20
1090.9872770565382
 11
1396.5459152040617
 21
1095.7302330828918
  0
LINE
  8
_0-0_0
  6
CONTINUOUS
 62
    7
 10
1397.3941075592315
 20
1090.8148681833204
 11
1395.9712194750821
 21
1095.5578242095485
  0
LINE
  8
_0-0_0
  6
CONTINUOUS
 62
    7
 10
1396.5459152039707
 20
1095.7302330829584
 11
1395.9712194749959
 21
1095.5578242095219
  0
LINE
  8
_0-0_0
  6
CONTINUOUS
 62
    7
 10
1396.5320639663771
 20
1090.5562548734965
 11
1394.6930359858202
 21
1096.6863426450077
  0
LINE
  8
_0-0_0
  6
CONTINUOUS
 62
    7
 10
1530.4361604284272
 20
1163.5100847114368
 11
1416.2441193628661
 21
1129.2524416629171
  0
LINE
  8
_0-0_0
  6
CONTINUOUS
 62
    7
 10
1421.1409922078997
 20
1104.6207366286681
 11
1428.5073773644335
 21
1080.0661414655474
  0
LINE
  8
_0-0_0
  6
CONTINUOUS
 62
    7
 10
1397.1953368508862
 20
1097.4370335778037
 11
1404.5617187593109
 21
1072.8824492417307
  0
LINE
  8
_0-0_0
  6
CONTINUOUS
 62
    7
 10
1423.4278224138086
 20
1105.306786305825
 11
1416.2441193627524
 21
1129.2524416628823
  0
LINE
  8
_0-0_0
  6
CONTINUOUS
 62
    7
 10
1422.6807178120048
 20
1105.7090731612409
 11
1393.9459313836246
 21
1097.088629500246
  0
LINE
  8
_0-0_0
  6
CONTINUOUS
 62
    7
 10
1423.4278224137975
 20
1105.3067863058216
 11
1394.6930359858454
 21
1096.6863426449238
  0
LINE
  8
_0-0_0
  6
CONTINUOUS
 62
    2
 10
759.3698326699739
 20
728.32366434276332
 11
759.3698326699739
 21
703.32366434276332
  0
LINE
  8
_0-0_0
  6
CONTINUOUS
 62
    2
 10
854.71983266968971
 20
705.42366434276005
 11
854.71983266968971
 21
704.82366434276014
  0
LINE
  8
_0-0_0
  6
CONTINUOUS
 62
    2
 10
854.71983266983329
 20
705.4236643426641
 11
859.36983266997402
 21
705.42366434275823
  0
LINE
  8
_0-0_0
  6
CONTINUOUS
 62
    2
 10
854.71983266983329
 20
704.8236643427407
 11
859.36983266997402
 21
704.82366434275843
  0
LINE
  8
_0-0_0
  6
CONTINUOUS
 62
    2
 10
760.86983266996026
 20
723.67366434405847
 11
761.46983266998245
 21
723.6736643440579
  0
LINE
  8
_0-0_0
  6
CONTINUOUS
 62
    2
 10
761.46983266998973
 20
728.32366434276298
 11
761.46983266987331
 21
723.67366434387054
  0
LINE
  8
_0-0_0
  6
CONTINUOUS
 62
    2
 10
760.86983266996663
 20
728.32366434276298
 11
760.86983266995117
 21
723.673664343871
  0
LINE
  8
_0-0_0
  6
CONTINUOUS
 62
    2
 10
759.9698326699488
 20
703.92366434276812
 11
859.36983266997402
 21
703.92366434275823
  0
LINE
  8
_0-0_0
  6
CONTINUOUS
 62
    2
 10
759.96983266996608
 20
728.32366434276298
 11
759.9698326699488
 21
703.92366434276232
  0
LINE
  8
_0-0_0
  6
CONTINUOUS
 62
    2
 10
759.3698326699739
 20
703.32366434276332
 11
859.36983266997402
 21
703.32366434276332
  0
LINE
  8
_0-0_0
  6
CONTINUOUS
 62
    7
 10
784.46660259319378
 20
703.92367384276793
 11
784.466068593194
 21
671.12368184276852
  0
LINE
  8
_0-0_0
  6
CONTINUOUS
 62
    7
 10
786.61660259319444
 20
703.92365384276832
 11
786.61606859319375
 21
671.12364684276849
  0
LINE
  8
_0-0_0
  6
CONTINUOUS
 62
    7
 10
784.466068593194
 20
671.12368184276852
 11
785.54099859319388
 21
666.82366384276861
  0
LINE
  8
_0-0_0
  6
CONTINUOUS
 62
    7
 10
786.61606859319375
 20
671.12364684276849
 11
785.54099859319388
 21
666.82366384276861
  0
LINE
  8
_0-0_0
  6
CONTINUOUS
 62
    2
 10
778.54160859330034
 20
703.92366434278006
 11
792.54160859278181
 21
703.92366434275004
  0
LINE
  8
_0-0_0
  6
CONTINUOUS
 62
    2
 10
778.54160859374315
 20
705.52366434260034
 11
792.54160859322485
 21
705.52366434243754
  0
LINE
  8
_0-0_0
  6
CONTINUOUS
 62
    7
 10
787.99161259308312
 20
705.92364143453483
 11
787.99160859307449
 21
705.52364184267651
  0
LINE
  8
_0-0_0
  6
CONTINUOUS
 62
    7
 10
783.09161259308542
 20
705.92368725086521
 11
783.09160859307394
 21
705.52368684267617
  0
LINE
  8
_0-0_0
  6
CONTINUOUS
 62
    7
 10
783.59161718489668
 20
706.42368225084351
 11
787.49161718494452
 21
706.4236464345139
  0
LINE
  8
_0-0_0
  6
CONTINUOUS
 62
    2
 10
778.54160859329215
 20
705.52366434260227
 11
778.54160859339663
 21
703.92366434279552
  0
LINE
  8
_0-0_0
  6
CONTINUOUS
 62
    2
 10
792.54160859467913
 20
705.52366434243936
 11
792.54160859308377
 21
703.92366434276551
  0
LINE
  8
_0-0_0
  6
CONTINUOUS
 62
    7
 10
759.3698326699739
 20
701.92366434276323
 11
1100.7954598746446
 21
701.92366434276346
  0
LINE
  8
_0-0_0
  6
CONTINUOUS
 62
    7
 10
759.36983266997413
 20
641.92366434276369
 11
1100.7954598746446
 21
641.92366434276414
  0
LINE
  8
_0-0_0
  6
CONTINUOUS
 62
    7
 10
757.31408690932699
 20
670.64507173219226
 11
790.11407890932628
 21
670.64453773219248
  0
LINE
  8
_0-0_0
  6
CONTINUOUS
 62
    7
 10
757.31410690932648
 20
672.79507173219292
 11
790.11411390932631
 21
672.79453773219223
  0
LINE
  8
_0-0_0
  6
CONTINUOUS
 62
    7
 10
790.11411390932631
 20
672.79453773219223
 11
794.41409690932619
 21
671.71946773219202
  0
LINE
  8
_0-0_0
  6
CONTINUOUS
 62
    2
 10
757.31409640931497
 20
664.72007773229871
 11
757.31409640934476
 21
678.72007773178007
  0
LINE
  8
_0-0_0
  6
CONTINUOUS
 62
    2
 10
755.71409640949446
 20
664.72007773274163
 11
755.71409640965726
 21
678.72007773222333
  0
LINE
  8
_0-0_0
  6
CONTINUOUS
 62
    7
 10
755.31411931755997
 20
674.1700817320816
 11
755.7141189094184
 21
674.17007773207297
  0
LINE
  8
_0-0_0
  6
CONTINUOUS
 62
    7
 10
755.31407350122959
 20
669.2700817320839
 11
755.71407390941863
 21
669.27007773207242
  0
LINE
  8
_0-0_0
  6
CONTINUOUS
 62
    7
 10
754.81407850125129
 20
669.77008632389516
 11
754.81411431758102
 21
673.670086323943
  0
LINE
  8
_0-0_0
  6
CONTINUOUS
 62
    2
 10
755.71409640949287
 20
664.72007773229052
 11
757.31409640929928
 21
664.72007773239511
  0
LINE
  8
_0-0_0
  6
CONTINUOUS
 62
    2
 10
755.71409640965544
 20
678.72007773367761
 11
757.31409640932907
 21
678.72007773208225
  0
LINE
  8
_0-0_0
  6
CONTINUOUS
 62
    7
 10
790.11407890932628
 20
670.64453773219248
 11
794.41409690932619
 21
671.71946773219202
  0
LINE
  8
_0-0_0
  6
CONTINUOUS
 62
    7
 10
785.54099859320513
 20
666.82366384272268
 11
796.67079186474859
 21
656.7674368299356
  0
LINE
  8
_0-0_0
  6
CONTINUOUS
 62
    7
 10
785.54099859320513
 20
666.82366384272268
 11
792.56015099711817
 21
653.56728803594046
  0
LINE
  8
_0-0_0
  6
CONTINUOUS
 62
    7
 10
785.54099859320513
 20
666.82366384272268
 11
830.82114213489604
 21
608.66061564824554
  0
LINE
  8
_0-0_0
  6
CONTINUOUS
 62
    2
 10
1607.423462233696
 20
712.66115941885676
 11
1618.1511172889825
 21
715.87945353522468
  0
LINE
  8
_0-0_0
  6
CONTINUOUS
 62
    2
 10
1618.4384649779363
 20
714.92162719101975
 11
1618.1511172889457
 21
715.87945353485293
  0
LINE
  8
_0-0_0
  6
CONTINUOUS
 62
    2
 10
1607.7108099226409
 20
711.70333307468047
 11
1607.4234622339122
 21
712.66115941856071
  0
LINE
  8
_0-0_0
  6
CONTINUOUS
 62
    7
 10
1624.1336498928606
 20
711.25012334007022
 11
1622.6529008925238
 21
716.18595702242737
  0
LINE
  8
_0-0_0
  6
CONTINUOUS
 62
    7
 10
1604.9771230087538
 20
705.50316956099721
 11
1603.4963740084149
 21
710.43900324335414
  0
LINE
  8
_0-0_0
  6
CONTINUOUS
 62
    2
 10
1603.4963740084552
 20
710.43900324336607
 11
1622.6529008925818
 21
716.18595702244943
  0
LINE
  8
_0-0_0
  6
CONTINUOUS
 62
    7
 10
1604.977123008794
 20
705.50316956100949
 11
1624.1336498929247
 21
711.25012334007238
  0
LINE
  8
_0-0_0
  6
CONTINUOUS
 62
    2
 10
1604.0710693863566
 20
708.52335055497065
 11
1623.2275962704866
 21
714.27030433403911
  0
LINE
  8
_0-0_0
  6
CONTINUOUS
 62
    2
 10
1609.8180295946515
 20
720.6877431977581
 11
1611.7336822826235
 21
721.26243857528777
  0
LINE
  8
_0-0_0
  6
CONTINUOUS
 62
    2
 10
1615.1818556218891
 20
714.98867569908202
 11
1613.601443332351
 21
720.25672059246881
  0
LINE
  8
_0-0_0
  6
CONTINUOUS
 62
    2
 10
1610.392723900932
 20
713.55193725432162
 11
1608.8123116117438
 21
718.81998214807322
  0
LINE
  8
_0-0_0
  6
CONTINUOUS
 62
    2
 10
1629.9323667495664
 20
648.4197458494009
 11
1635.2004095007755
 21
639.55985163028174
  0
LINE
  8
_0-0_0
  6
CONTINUOUS
 62
    2
 10
1634.7214984712261
 20
649.85648429435912
 11
1635.2004095009358
 21
639.55985163032983
  0
LINE
  8
_0-0_0
  6
CONTINUOUS
 62
    2
 10
1634.7214984712562
 20
649.85648429371122
 11
1616.9499523113352
 21
709.0950156729225
  0
LINE
  8
_0-0_0
  6
CONTINUOUS
 62
    2
 10
1629.9323667495985
 20
648.41974584934667
 11
1612.160820590359
 21
707.65827722816937
  0
LINE
  8
_0-0_0
  6
CONTINUOUS
 62
    3
 10
1401.5944056847466
 20
643.44637486074612
 11
1396.4221978434994
 21
660.68722793790016
  0
LINE
  8
_0-0_0
  6
CONTINUOUS
 62
    2
 10
1562.6110512079215
 20
699.44889358925127
 11
1573.338706263208
 21
702.66718770561943
  0
LINE
  8
_0-0_0
  6
CONTINUOUS
 62
    2
 10
1573.6260539521611
 20
701.70936136141427
 11
1573.3387062631712
 21
702.66718770524744
  0
LINE
  8
_0-0_0
  6
CONTINUOUS
 62
    2
 10
1562.8983988968664
 20
698.49106724507499
 11
1562.6110512081377
 21
699.44889358895523
  0
LINE
  8
_0-0_0
  6
CONTINUOUS
 62
    7
 10
1579.3212388670861
 20
698.03785751046473
 11
1577.8404898667493
 21
702.973691192822
  0
LINE
  8
_0-0_0
  6
CONTINUOUS
 62
    7
 10
1560.1647119829786
 20
692.29090373139184
 11
1558.6839629826404
 21
697.22673741374865
  0
LINE
  8
_0-0_0
  6
CONTINUOUS
 62
    2
 10
1558.6839629826807
 20
697.22673741376059
 11
1577.8404898668066
 21
702.97369119284417
  0
LINE
  8
_0-0_0
  6
CONTINUOUS
 62
    7
 10
1560.1647119830188
 20
692.290903731404
 11
1579.3212388671502
 21
698.03785751046712
  0
LINE
  8
_0-0_0
  6
CONTINUOUS
 62
    2
 10
1559.2586583605814
 20
695.31108472536516
 11
1578.4151852447114
 21
701.05803850443363
  0
LINE
  8
_0-0_0
  6
CONTINUOUS
 62
    2
 10
1565.005618568877
 20
707.47547736815272
 11
1566.921271256849
 21
708.05017274568229
  0
LINE
  8
_0-0_0
  6
CONTINUOUS
 62
    2
 10
1570.3694445961139
 20
701.77640986947654
 11
1568.7890323065765
 21
707.04445476286355
  0
LINE
  8
_0-0_0
  6
CONTINUOUS
 62
    2
 10
1565.5803128751575
 20
700.33967142471613
 11
1563.9999005859693
 21
705.60771631846774
  0
LINE
  8
_0-0_0
  6
CONTINUOUS
 62
    2
 10
1585.1199557237919
 20
635.20748001979553
 11
1590.387998475001
 21
626.34758580067637
  0
LINE
  8
_0-0_0
  6
CONTINUOUS
 62
    2
 10
1589.9090874454516
 20
636.64421846475352
 11
1590.3879984751613
 21
626.34758580072457
  0
LINE
  8
_0-0_0
  6
CONTINUOUS
 62
    2
 10
1589.9090874454816
 20
636.64421846410585
 11
1572.1375412855607
 21
695.88274984331701
  0
LINE
  8
_0-0_0
  6
CONTINUOUS
 62
    2
 10
1585.119955723824
 20
635.20748001974107
 11
1567.3484095645845
 21
694.44601139856388
  0
LINE
  8
_0-0_0
  6
CONTINUOUS
 62
    3
 10
1427.0437724320889
 20
651.08118034891731
 11
1421.8715645908417
 21
668.32203342607113
  0
LINE
  8
_0-0_0
  6
CONTINUOUS
 62
    3
 10
1431.8329075341726
 20
652.51790752343345
 11
1426.6606996929247
 21
669.75876060058749
  0
LINE
  8
_0-0_0
  6
CONTINUOUS
 62
    3
 10
1483.1859765801328
 20
667.9238315866836
 11
1478.0137687388856
 21
685.16468466383753
  0
LINE
  8
_0-0_0
  6
CONTINUOUS
 62
    3
 10
1487.975111682216
 20
669.36055876119963
 11
1482.8029038409686
 21
686.60141183835356
  0
LINE
  8
_0-0_0
  6
CONTINUOUS
 62
    3
 10
1399.4802870116268
 20
710.60896760701633
 11
1481.9887991516616
 21
683.97175763393602
  0
LINE
  8
_0-0_0
  6
CONTINUOUS
 62
    3
 10
1589.8185374560901
 20
746.32173218818491
 11
1611.6473551636227
 21
720.50148478400592
  0
LINE
  8
_0-0_0
  6
CONTINUOUS
 62
    2
 10
1794.9853472793629
 20
780.25610172975553
 11
1396.4221978434994
 21
660.68722793790016
  0
LINE
  8
_0-0_0
  6
CONTINUOUS
 62
    2
 10
1795.2727110823428
 20
779.29821348184964
 11
1396.7095579025142
 21
659.72935216999031
  0
LINE
  8
_0-0_0
  6
CONTINUOUS
 62
    4
 10
1798.1461506677417
 20
769.71999249025021
 11
1399.5830012318779
 21
650.15111869839461
  0
LINE
  8
_0-0_0
  6
CONTINUOUS
 62
    4
 10
1798.4334804196581
 20
768.76221774694341
 11
1399.8703272398297
 21
649.19335643508441
  0
LINE
  8
_0-0_0
  6
CONTINUOUS
 62
    4
 10
1799.8707666668445
 20
763.97121905196661
 11
1401.3076122390289
 21
644.4023619001058
  0
LINE
  8
_0-0_0
  6
CONTINUOUS
 62
    4
 10
1800.1575588645746
 20
763.01523617260455
 11
1401.5944056847463
 21
643.446374860746
  0
LINE
  8
_0-0_0
  6
CONTINUOUS
 62
    2
 10
1588.2747315143338
 20
717.19886357120936
 11
1312.3599439905972
 21
634.42447649245332
  0
LINE
  8
_0-0_0
  6
CONTINUOUS
 62
    2
 10
1588.5620990869525
 20
716.24097455093965
 11
1312.6473057255557
 21
633.4665951380141
  0
LINE
  8
_0-0_0
  6
CONTINUOUS
 62
    4
 10
1591.435570604335
 20
706.66276504218445
 11
1315.5207473789756
 21
623.888367252948
  0
LINE
  8
_0-0_0
  6
CONTINUOUS
 62
    4
 10
1591.7229041255061
 20
705.70498952639741
 11
1315.8080750628712
 21
622.93059940310786
  0
LINE
  8
_0-0_0
  6
CONTINUOUS
 62
    4
 10
1593.1602067816104
 20
700.91399511967381
 11
1317.2453606207177
 21
618.13960300595318
  0
LINE
  8
_0-0_0
  6
CONTINUOUS
 62
    4
 10
1593.447002044079
 20
699.95801379415161
 11
1317.5321535077874
 21
617.18361782876957
  0
LINE
  8
_0-0_0
  6
CONTINUOUS
 62
    7
 10
823.13383009883103
 20
1074.6306437733574
 11
817.96162641626665
 21
1091.8714464351497
  0
LINE
  8
_0-0_0
  6
CONTINUOUS
 62
    7
 10
775.24248746160765
 20
1060.2633440825989
 11
770.07028377904317
 21
1077.5041467443916
  0
LINE
  8
_0-0_0
  6
CONTINUOUS
 62
    2
 10
1080.7235195682099
 20
1170.7000614010362
 11
770.07028397446766
 21
1077.5041460929731
  0
LINE
  8
_0-0_0
  6
CONTINUOUS
 62
    2
 10
1081.0108871408283
 20
1169.7421723807665
 11
770.35764594204784
 21
1076.5462659939631
  0
LINE
  8
_0-0_0
  6
CONTINUOUS
 62
    4
 10
1083.8843586582111
 20
1160.1639628720113
 11
773.23109351088067
 21
1066.9680386978771
  0
LINE
  8
_0-0_0
  6
CONTINUOUS
 62
    4
 10
1084.1716921793818
 20
1159.2061873562243
 11
773.51842142733153
 21
1066.0102721034461
  0
LINE
  8
_0-0_0
  6
CONTINUOUS
 62
    4
 10
1085.6089948354866
 20
1154.415192949501
 11
774.95570967204856
 21
1061.2192769075659
  0
LINE
  8
_0-0_0
  6
CONTINUOUS
 62
    4
 10
1085.8957900979549
 20
1153.4592116239783
 11
775.24250322572902
 21
1060.2632915351514
  0
LINE
  8
_0-0_0
  6
CONTINUOUS
 62
    2
 10
837.39769372178375
 20
1086.3759467891359
 11
848.12534877707026
 21
1089.5942409055042
  0
LINE
  8
_0-0_0
  6
CONTINUOUS
 62
    2
 10
848.41269646602382
 20
1088.6364145612988
 11
848.12534877703365
 21
1089.594240905132
  0
LINE
  8
_0-0_0
  6
CONTINUOUS
 62
    2
 10
837.68504141072867
 20
1085.4181204449596
 11
837.39769372199987
 21
1086.3759467888399
  0
LINE
  8
_0-0_0
  6
CONTINUOUS
 62
    7
 10
854.10788138094836
 20
1084.9649107103494
 11
852.62713238061144
 21
1089.9007443927067
  0
LINE
  8
_0-0_0
  6
CONTINUOUS
 62
    7
 10
834.95135449684108
 20
1079.2179569312764
 11
833.47060549650269
 21
1084.1537906136332
  0
LINE
  8
_0-0_0
  6
CONTINUOUS
 62
    2
 10
833.47060549654282
 20
1084.1537906136452
 11
852.62713238066942
 21
1089.9007443927289
  0
LINE
  8
_0-0_0
  6
CONTINUOUS
 62
    7
 10
834.95135449688166
 20
1079.2179569312887
 11
854.10788138101293
 21
1084.9649107103519
  0
LINE
  8
_0-0_0
  6
CONTINUOUS
 62
    2
 10
834.04530087444414
 20
1082.2381379252497
 11
853.20182775857427
 21
1087.9850917043182
  0
LINE
  8
_0-0_0
  6
CONTINUOUS
 62
    2
 10
839.79226108273951
 20
1094.4025305680373
 11
841.70791377071112
 21
1094.9772259455669
  0
LINE
  8
_0-0_0
  6
CONTINUOUS
 62
    2
 10
845.15608710997674
 20
1088.7034630693611
 11
843.57567482043896
 21
1093.9715079627481
  0
LINE
  8
_0-0_0
  6
CONTINUOUS
 62
    2
 10
840.36695538901995
 20
1087.2667246246008
 11
838.78654309983199
 21
1092.5347695183523
  0
LINE
  8
_0-0_0
  6
CONTINUOUS
 62
    2
 10
859.90659823765418
 20
1022.1345332196801
 11
865.1746409888633
 21
1013.2746390005609
  0
LINE
  8
_0-0_0
  6
CONTINUOUS
 62
    2
 10
864.69572995931412
 20
1023.5712716646383
 11
865.1746409890236
 21
1013.274639000609
  0
LINE
  8
_0-0_0
  6
CONTINUOUS
 62
    2
 10
864.69572995934391
 20
1023.5712716639903
 11
846.92418379942342
 21
1082.8098030432016
  0
LINE
  8
_0-0_0
  6
CONTINUOUS
 62
    2
 10
859.90659823768647
 20
1022.1345332196258
 11
842.13505207844673
 21
1081.3730645984485
  0
LINE
  8
_0-0_0
  6
CONTINUOUS
 62
    3
 10
638.39393628610151
 20
874.81598511902052
 11
1847.593812684755
 21
874.81598511902052
  0
LINE
  8
_0-0_0
  6
CONTINUOUS
 62
    3
 10
1242.9938257707131
 20
1293.4159710858321
 11
1242.9938257707131
 21
501.21599393277552
  0
LINE
  8
_0-0_0
  6
CONTINUOUS
 62
    3
 10
1092.2174720157761
 20
1132.3869690557729
 11
829.45553094243587
 21
1053.5584210379263
  0
LINE
  8
_0-0_0
  6
CONTINUOUS
 62
    7
 10
872.55771532625477
 20
1066.489070725986
 11
829.45553094243587
 21
1053.5584210379263
  0
LINE
  8
_0-0_0
  6
CONTINUOUS
 62
    7
 10
889.79844142050001
 20
1009.0194495008151
 11
846.69639719313091
 21
996.08884185967213
  0
LINE
  8
_0-0_0
  6
CONTINUOUS
 62
    7
 10
889.79844142050001
 20
1009.0194495008151
 11
872.55774686118593
 21
1066.488965608572
  0
LINE
  8
_0-0_0
  6
CONTINUOUS
 62
    7
 10
846.69625703668112
 20
996.08879981275561
 11
829.45553094243587
 21
1053.5584210379263
  0
LINE
  8
_0-0_0
  6
CONTINUOUS
 62
    7
 10
872.55774686118593
 20
1066.488965608572
 11
846.69639719313091
 21
996.08884185967213
  0
LINE
  8
_0-0_0
  6
CONTINUOUS
 62
    7
 10
829.4555309424361
 20
1053.5584210379266
 11
889.79844142050001
 21
1009.0194495008151
  0
LINE
  8
_0-0_0
  6
CONTINUOUS
 62
    7
 10
829.45553094243655
 20
1053.5584210379266
 11
823.13392288876446
 21
1074.6306437733574
  0
LINE
  8
_0-0_0
  6
CONTINUOUS
 62
    7
 10
1496.6085969510434
 20
1073.353631312119
 11
1513.8494632017394
 21
1015.8840521338642
  0
LINE
  8
_0-0_0
  6
CONTINUOUS
 62
    7
 10
1453.5064125673546
 20
1060.4229816240991
 11
1470.7472788180496
 21
1002.9534024458446
  0
LINE
  8
_0-0_0
  6
CONTINUOUS
 62
    7
 10
1513.8494632017373
 20
1015.8840521338642
 11
1470.7472788180489
 21
1002.9534024458443
  0
LINE
  8
_0-0_0
  6
CONTINUOUS
 62
    7
 10
1496.6085969510432
 20
1073.3536313121199
 11
1453.5064125673539
 21
1060.4229816240991
  0
LINE
  8
_0-0_0
  6
CONTINUOUS
 62
    7
 10
1496.6085969510423
 20
1073.3536313121172
 11
1470.7472788180535
 21
1002.9534024458453
  0
LINE
  8
_0-0_0
  6
CONTINUOUS
 62
    7
 10
1453.5064125673553
 20
1060.4229816241002
 11
1513.8494632017364
 21
1015.8840521338635
  0
LINE
  8
_0-0_0
  6
CONTINUOUS
 62
    7
 10
1518.3675015697027
 20
1124.7746682761444
 11
1530.4361604748497
 21
1084.5459265663733
  0
LINE
  8
_0-0_0
  6
CONTINUOUS
 62
    3
 10
1529.861463113843
 20
1086.4615786598522
 11
1330.6336161618669
 21
1026.6932505838972
  0
LINE
  8
_0-0_0
  6
CONTINUOUS
 62
    3
 10
1530.2637512665465
 20
1085.1206221944162
 11
1330.6336161618669
 21
1025.2316077251701
  0
LINE
  8
_0-0_0
  6
CONTINUOUS
 62
    3
 10
1530.4361604748476
 20
1084.5459265663726
 11
1330.6336161618674
 21
1024.6051893571437
  0
LINE
  8
_0-0_0
  6
CONTINUOUS
 62
    4
 10
1523.5397720308579
 20
1107.5338187277127
 11
1327.7601384534178
 21
1048.7999702318248
  0
LINE
  8
_0-0_0
  6
CONTINUOUS
 62
    4
 10
1523.2529767588521
 20
1108.4898000850262
 11
1327.7601384534178
 21
1049.8419923339261
  0
LINE
  8
_0-0_0
  6
CONTINUOUS
 62
    4
 10
1521.8156741122848
 20
1113.2807944599581
 11
1327.7601384534178
 21
1055.0641749734991
  0
LINE
  8
_0-0_0
  6
CONTINUOUS
 62
    4
 10
1521.5283406197264
 20
1114.238569880371
 11
1327.7601384534178
 21
1056.1081437672401
  0
LINE
  8
_0-0_0
  6
CONTINUOUS
 62
    2
 10
1518.6548690737307
 20
1123.8167794844999
 11
1327.7601384534178
 21
1066.5484008383532
  0
LINE
  8
_0-0_0
  6
CONTINUOUS
 62
    3
 10
1426.7835223316358
 20
1097.2994909736708
 11
1518.3675015297254
 21
1124.7746684093941
  0
LINE
  8
_0-0_0
  6
CONTINUOUS
 62
    2
 10
1518.3675015297251
 20
1124.7746684093954
 11
1327.7601384534178
 21
1067.5924934598859
  0
LINE
  8
_0-0_0
  6
CONTINUOUS
 62
    7
 10
1638.1916031377075
 20
1105.7090731612464
 11
1645.3753061885768
 21
1129.6547285182662
  0
LINE
  8
_0-0_0
  6
CONTINUOUS
 62
    7
 10
1530.4361604748478
 20
1164.1365031623156
 11
1645.3753061885652
 21
1129.6547285182701
  0
LINE
  8
_0-0_0
  6
CONTINUOUS
 62
    7
 10
1664.9149527118921
 20
1090.3838460002803
 11
1666.9263895660747
 21
1097.0886295002433
  0
LINE
  8
_0-0_0
  6
CONTINUOUS
 62
    7
 10
1662.9035176618943
 20
1090.9872770565382
 11
1664.3264057456379
 21
1095.7302330828918
  0
LINE
  8
_0-0_0
  6
CONTINUOUS
 62
    7
 10
1663.478213390468
 20
1090.8148681833204
 11
1664.9011014746168
 21
1095.5578242095485
  0
LINE
  8
_0-0_0
  6
CONTINUOUS
 62
    7
 10
1664.3264057457286
 20
1095.7302330829584
 11
1664.9011014747034
 21
1095.5578242095219
  0
LINE
  8
_0-0_0
  6
CONTINUOUS
 62
    7
 10
1664.3402569833218
 20
1090.5562548734965
 11
1666.1792849638794
 21
1096.6863426450072
  0
LINE
  8
_0-0_0
  6
CONTINUOUS
 62
    7
 10
1530.4361605212721
 20
1163.5100847114368
 11
1644.628201586833
 21
1129.2524416629171
  0
LINE
  8
_0-0_0
  6
CONTINUOUS
 62
    7
 10
1639.7313287417996
 20
1104.6207366286681
 11
1632.3649435852658
 21
1080.0661414655474
  0
LINE
  8
_0-0_0
  6
CONTINUOUS
 62
    7
 10
1663.6769840988134
 20
1097.4370335778037
 11
1656.3106021903884
 21
1072.8824492417307
  0
LINE
  8
_0-0_0
  6
CONTINUOUS
 62
    7
 10
1637.4444985358907
 20
1105.306786305825
 11
1644.6282015869469
 21
1129.2524416628823
  0
LINE
  8
_0-0_0
  6
CONTINUOUS
 62
    7
 10
1638.1916031376945
 20
1105.7090731612409
 11
1666.9263895660747
 21
1097.088629500246
  0
LINE
  8
_0-0_0
  6
CONTINUOUS
 62
    7
 10
1637.4444985359016
 20
1105.3067863058216
 11
1666.1792849638534
 21
1096.6863426449238
  0
LINE
  8
_0-0_0
  6
CONTINUOUS
 62
    7
 10
1564.2637239986559
 20
1073.353631312119
 11
1547.0228577479602
 21
1015.8840521338642
  0
LINE
  8
_0-0_0
  6
CONTINUOUS
 62
    7
 10
1607.3659083823445
 20
1060.4229816240991
 11
1590.1250421316495
 21
1002.9534024458446
  0
LINE
  8
_0-0_0
  6
CONTINUOUS
 62
    7
 10
1547.0228577479622
 20
1015.8840521338642
 11
1590.1250421316502
 21
1002.9534024458443
  0
LINE
  8
_0-0_0
  6
CONTINUOUS
 62
    7
 10
1564.2637239986559
 20
1073.3536313121199
 11
1607.3659083823452
 21
1060.4229816240991
  0
LINE
  8
_0-0_0
  6
CONTINUOUS
 62
    7
 10
1564.2637239986573
 20
1073.3536313121172
 11
1590.1250421316461
 21
1002.9534024458453
  0
LINE
  8
_0-0_0
  6
CONTINUOUS
 62
    7
 10
1607.3659083823438
 20
1060.4229816241002
 11
1547.0228577479629
 21
1015.8840521338635
  0
LINE
  8
_0-0_0
  6
CONTINUOUS
 62
    7
 10
1542.5048193799967
 20
1124.7746682761444
 11
1530.4361604748497
 21
1084.5459265663733
  0
LINE
  8
_0-0_0
  6
CONTINUOUS
 62
    3
 10
1531.0108578358563
 20
1086.4615786598522
 11
1730.2387047878326
 21
1026.6932505838972
  0
LINE
  8
_0-0_0
  6
CONTINUOUS
 62
    3
 10
1530.6085696831528
 20
1085.1206221944162
 11
1730.2387047878326
 21
1025.2316077251699
  0
LINE
  8
_0-0_0
  6
CONTINUOUS
 62
    3
 10
1530.4361604748517
 20
1084.5459265663726
 11
1730.2387047878319
 21
1024.6051893571437
  0
LINE
  8
_0-0_0
  6
CONTINUOUS
 62
    4
 10
1537.3325489188414
 20
1107.5338187277127
 11
1733.1121824962813
 21
1048.7999702318243
  0
LINE
  8
_0-0_0
  6
CONTINUOUS
 62
    4
 10
1537.6193441908474
 20
1108.4898000850262
 11
1733.1121824962813
 21
1049.8419923339261
  0
LINE
  8
_0-0_0
  6
CONTINUOUS
 62
    4
 10
1539.0566468374143
 20
1113.2807944599581
 11
1733.1121824962813
 21
1055.0641749734991
  0
LINE
  8
_0-0_0
  6
CONTINUOUS
 62
    4
 10
1539.3439803299732
 20
1114.238569880371
 11
1733.1121824962813
 21
1056.1081437672401
  0
LINE
  8
_0-0_0
  6
CONTINUOUS
 62
    2
 10
1542.2174518759687
 20
1123.8167794844999
 11
1733.1121824962813
 21
1066.5484008383528
  0
LINE
  8
_0-0_0
  6
CONTINUOUS
 62
    3
 10
1634.0887986180635
 20
1097.2994909736708
 11
1542.5048194199737
 21
1124.7746684093941
  0
LINE
  8
_0-0_0
  6
CONTINUOUS
 62
    2
 10
1542.5048194199744
 20
1124.7746684093954
 11
1733.1121824962813
 21
1067.5924934598856
  0
LINE
  8
_0-0_0
  6
CONTINUOUS
 62
    3
 10
757.91409640931579
 20
748.10779772944977
 11
892.11620452428065
 21
748.10779772945045
  0
LINE
  8
_0-0_0
  6
CONTINUOUS
 62
    2
 10
942.20045987453977
 20
742.52066434276321
 11
923.83545987453977
 21
731.51266434276295
  0
LINE
  8
_0-0_0
  6
CONTINUOUS
 62
    2
 10
902.60245987453948
 20
731.51266434276295
 11
884.23745987453981
 21
742.52066434276321
  0
LINE
  8
_0-0_0
  6
CONTINUOUS
 62
    2
 10
842.28945987453972
 20
723.33966434276294
 11
815.97645987453984
 21
721.08466434276295
  0
LINE
  8
_0-0_0
  6
CONTINUOUS
 62
    2
 10
814.29045987453969
 20
724.7856643427632
 11
824.93945987453981
 21
734.8606643427629
  0
LINE
  8
_0-0_0
  6
CONTINUOUS
 62
    2
 10
825.09645987453973
 20
735.22366434276296
 11
825.09645987453973
 21
739.22366434276296
  0
LINE
  8
_0-0_0
  6
CONTINUOUS
 62
    2
 10
825.09645987453973
 20
739.22366434276296
 11
822.09645987453973
 21
745.22366434276296
  0
LINE
  8
_0-0_0
  6
CONTINUOUS
 62
    2
 10
768.09645987453973
 20
745.22366434276296
 11
763.15545987453982
 21
735.95966434276284
  0
LINE
  8
_0-0_0
  6
CONTINUOUS
 62
    2
 10
763.59645987453962
 20
735.22366434276296
 11
768.83545987453965
 21
735.22366434276296
  0
LINE
  8
_0-0_0
  6
CONTINUOUS
 62
    2
 10
765.32345987453971
 20
735.44666434276292
 11
764.7234598745398
 21
736.24666434276321
  0
LINE
  8
_0-0_0
  6
CONTINUOUS
 62
    2
 10
768.83545987453965
 20
734.22366434276307
 11
763.59645987453962
 21
734.22366434276307
  0
LINE
  8
_0-0_0
  6
CONTINUOUS
 62
    2
 10
762.27245987453978
 20
736.42966434276309
 11
767.21445987453978
 21
745.69466434276308
  0
LINE
  8
_0-0_0
  6
CONTINUOUS
 62
    2
 10
822.99045987453985
 20
745.67166434276282
 11
825.99045987453985
 21
739.67166434276282
  0
LINE
  8
_0-0_0
  6
CONTINUOUS
 62
    2
 10
826.09645987453962
 20
739.22366434276296
 11
826.09645987453962
 21
735.22366434276296
  0
LINE
  8
_0-0_0
  6
CONTINUOUS
 62
    2
 10
825.62745987453991
 20
734.13466434276302
 11
814.97745987453982
 21
724.05966434276331
  0
LINE
  8
_0-0_0
  6
CONTINUOUS
 62
    2
 10
815.88445987453974
 20
722.07966434276307
 11
842.20445987453991
 21
724.33666434276313
  0
LINE
  8
_0-0_0
  6
CONTINUOUS
 62
    2
 10
884.75145987453971
 20
743.37866434276327
 11
903.11645987453971
 21
732.36966434276326
  0
LINE
  8
_0-0_0
  6
CONTINUOUS
 62
    2
 10
923.32145987453987
 20
732.36966434276326
 11
941.68645987454011
 21
743.37866434276327
  0
LINE
  8
_0-0_0
  6
CONTINUOUS
 62
    2
 10
960.23745987454004
 20
742.52066434276321
 11
978.60245987453982
 21
731.51266434276295
  0
LINE
  8
_0-0_0
  6
CONTINUOUS
 62
    2
 10
979.11645987453994
 20
732.36966434276326
 11
960.75145987454016
 21
743.37866434276327
  0
LINE
  8
_0-0_0
  6
CONTINUOUS
 62
    2
 10
1018.2004598745397
 20
742.52066434276321
 11
999.83545987453999
 21
731.51266434276295
  0
LINE
  8
_0-0_0
  6
CONTINUOUS
 62
    2
 10
999.32145987453987
 20
732.36966434276326
 11
1017.68645987454
 21
743.37866434276327
  0
LINE
  8
_0-0_0
  6
CONTINUOUS
 62
    2
 10
1036.23745987454
 20
742.52066434276321
 11
1054.6024598745398
 21
731.51266434276295
  0
LINE
  8
_0-0_0
  6
CONTINUOUS
 62
    2
 10
1055.1164598745399
 20
732.36966434276326
 11
1036.7514598745397
 21
743.37866434276327
  0
LINE
  8
_0-0_0
  6
CONTINUOUS
 62
    2
 10
1094.2004598745398
 20
742.52066434276321
 11
1075.8354598745398
 21
731.51266434276295
  0
LINE
  8
_0-0_0
  6
CONTINUOUS
 62
    2
 10
1075.3214598745399
 20
732.36966434276326
 11
1093.6864598745394
 21
743.37866434276327
  0
LINE
  8
_0-0_0
  6
CONTINUOUS
 62
    2
 10
842.87745987453991
 20
724.62866434276327
 11
865.68645987453976
 21
743.37866434276327
  0
LINE
  8
_0-0_0
  6
CONTINUOUS
 62
    2
 10
866.23445987453988
 20
742.54266434276315
 11
843.54745987453964
 21
723.88766434276306
  0
LINE
  8
_0-0_0
  6
CONTINUOUS
 62
    2
 10
768.09645987453973
 20
745.22366434276296
 11
822.09645987453973
 21
745.22366434276296
  0
LINE
  8
_0-0_0
  6
CONTINUOUS
 62
    2
 10
891.52445987453962
 20
739.85866434276306
 11
891.37445987453975
 21
739.7086643427632
  0
LINE
  8
_0-0_0
  6
CONTINUOUS
 62
    2
 10
768.09645987453973
 20
746.22366434276307
 11
822.09645987453973
 21
746.22366434276307
  0
LINE
  8
_0-0_0
  6
CONTINUOUS
 62
    2
 10
768.09645987453973
 20
746.22366434276307
 11
822.09645987453973
 21
746.22366434276307
  0
LINE
  8
_0-0_0
  6
CONTINUOUS
 62
    3
 10
810.43445987453981
 20
721.06166434276315
 11
815.57645987453964
 21
721.08266434276288
  0
LINE
  8
_0-0_0
  6
CONTINUOUS
 62
    3
 10
809.29145987453956
 20
722.80366434276289
 11
809.29145987453967
 21
718.22366434276296
  0
LINE
  8
_0-0_0
  6
CONTINUOUS
 62
    2
 10
757.31409640921163
 20
588.10779772945023
 11
757.31409640921072
 21
748.10779772945011
  0
LINE
  8
_0-0_0
  6
CONTINUOUS
 62
    2
 10
757.31409640921163
 20
588.10779772945023
 11
772.31409640921163
 21
588.10779772945023
  0
LINE
  8
_0-0_0
  6
CONTINUOUS
 62
    2
 10
772.31409640921163
 20
588.10779772945023
 11
772.31409640921163
 21
573.10779772945023
  0
LINE
  8
_0-0_0
  6
CONTINUOUS
 62
    2
 10
757.31409640921072
 20
748.10779772945011
 11
892.31409640921083
 21
748.10779772945011
  0
LINE
  8
_0-0_0
  6
CONTINUOUS
 62
    2
 10
772.91409640920097
 20
588.70779772945434
 11
772.91409640920097
 21
573.10779772945023
  0
LINE
  8
_0-0_0
  6
CONTINUOUS
 62
    2
 10
757.91409640921017
 20
588.70779772945514
 11
772.91409640924462
 21
588.70779772945434
  0
LINE
  8
_0-0_0
  6
CONTINUOUS
 62
    2
 10
757.9140964092129
 20
588.70779772945514
 11
757.91409640921108
 21
747.50779772945339
  0
LINE
  8
_0-0_0
  6
CONTINUOUS
 62
    2
 10
773.81409640920128
 20
577.7577977302434
 11
774.41409640920153
 21
577.7577977302434
  0
LINE
  8
_0-0_0
  6
CONTINUOUS
 62
    2
 10
774.41409640920699
 20
577.75779773030479
 11
774.41409640920097
 21
573.10779772945023
  0
LINE
  8
_0-0_0
  6
CONTINUOUS
 62
    2
 10
773.81409640932839
 20
577.75779773030479
 11
773.81409640920128
 21
573.10779772945023
  0
LINE
  8
_0-0_0
  6
CONTINUOUS
 62
    2
 10
892.31409640921083
 20
748.10779772945011
 11
915.04849980507061
 21
731.28082823894738
  0
LINE
  8
_0-0_0
  6
CONTINUOUS
 62
    2
 10
910.06157224783942
 20
732.3592778384135
 11
910.4185261748305
 21
732.84154736262178
  0
LINE
  8
_0-0_0
  6
CONTINUOUS
 62
    2
 10
910.41852617467362
 20
732.84154736279197
 11
914.15611498754038
 21
730.0751544283703
  0
LINE
  8
_0-0_0
  6
CONTINUOUS
 62
    2
 10
910.06157224767026
 20
732.3592778385671
 11
913.79916106054657
 21
729.59288490416407
  0
LINE
  8
_0-0_0
  6
CONTINUOUS
 62
    2
 10
892.11620452418344
 20
747.50779772945509
 11
914.69154587805042
 21
730.79855871470568
  0
LINE
  8
_0-0_0
  6
CONTINUOUS
 62
    2
 10
757.91409640921108
 20
747.50779772945441
 11
892.11620452417594
 21
747.50779772945509
  0
LINE
  8
_0-0_0
  6
CONTINUOUS
 62
    2
 10
869.65226234033582
 20
754.26095906417322
 11
880.85226234054392
 21
754.26095906420323
  0
LINE
  8
_0-0_0
  6
CONTINUOUS
 62
    2
 10
880.85226234054392
 20
753.26095906420335
 11
880.85226234040204
 21
754.26095906385763
  0
LINE
  8
_0-0_0
  6
CONTINUOUS
 62
    2
 10
869.65226234033582
 20
753.26095906420335
 11
869.65226234045781
 21
754.26095906382761
  0
LINE
  8
_0-0_0
  6
CONTINUOUS
 62
    7
 10
885.25226234062313
 20
748.10779772944716
 11
885.25226234062961
 21
753.26095906419005
  0
LINE
  8
_0-0_0
  6
CONTINUOUS
 62
    7
 10
865.25226234061506
 20
748.10779772944716
 11
865.25226234062006
 21
753.26095906419005
  0
LINE
  8
_0-0_0
  6
CONTINUOUS
 62
    2
 10
865.25226234066179
 20
753.26095906419005
 11
885.25226234069135
 21
753.26095906419459
  0
LINE
  8
_0-0_0
  6
CONTINUOUS
 62
    7
 10
865.25226234065735
 20
748.10779772944716
 11
885.25226234068555
 21
748.10779772943079
  0
LINE
  8
_0-0_0
  6
CONTINUOUS
 62
    2
 10
865.25226234066042
 20
751.26095906420585
 11
885.25226234068919
 21
751.26095906419494
  0
LINE
  8
_0-0_0
  6
CONTINUOUS
 62
    2
 10
874.2522623406918
 20
761.26095906435921
 11
876.25226234016338
 21
761.26095906412377
  0
LINE
  8
_0-0_0
  6
CONTINUOUS
 62
    2
 10
877.75226234037723
 20
754.26095906384944
 11
877.75226234017077
 21
759.76095906418243
  0
LINE
  8
_0-0_0
  6
CONTINUOUS
 62
    2
 10
872.75226234044453
 20
754.26095906383682
 11
872.75226234067782
 21
759.76095906441856
  0
LINE
  8
_0-0_0
  6
CONTINUOUS
 62
    2
 10
872.75226234043384
 20
686.2609590643608
 11
875.2522623417035
 21
676.260959064551
  0
LINE
  8
_0-0_0
  6
CONTINUOUS
 62
    2
 10
877.75226234109687
 20
686.2609590643608
 11
875.25226234187085
 21
676.260959064551
  0
LINE
  8
_0-0_0
  6
CONTINUOUS
 62
    2
 10
877.75226234104571
 20
686.26095906409205
 11
877.75226234063598
 21
748.10779772944716
  0
LINE
  8
_0-0_0
  6
CONTINUOUS
 62
    2
 10
872.75226234055799
 20
686.2609590639089
 11
872.75226234068634
 21
748.10779772944716
  0
LINE
  8
_0-0_0
  6
CONTINUOUS
 62
    3
 10
811.29145987453978
 20
706.22366434276296
 11
1100.79545987454
 21
706.22366434276296
  0
LINE
  8
_0-0_0
  6
CONTINUOUS
 62
    3
 10
809.29145987453967
 20
718.22366434276296
 11
809.29145987453967
 21
708.22366434276296
  0
LINE
  8
_0-0_0
  6
CONTINUOUS
 62
    7
 10
759.3698326699739
 20
701.92366434276323
 11
759.36983266997345
 21
641.92366434276369
  0
LINE
  8
_0-0_0
  6
CONTINUOUS
 62
    3
 10
1599.7686839619007
 20
678.8857712259462
 11
1323.8538026912352
 21
596.11134286604783
  0
LINE
  8
_0-0_0
  6
CONTINUOUS
 62
    3
 10
1806.4792030906797
 20
741.94297773451035
 11
1599.4812994543486
 21
679.84363366764728
  0
LINE
  8
_0-0_0
  6
CONTINUOUS
 62
    7
 10
1642.9857707173512
 20
691.43332650821458
 11
1599.8835863335323
 21
678.50267682015499
  0
LINE
  8
_0-0_0
  6
CONTINUOUS
 62
    7
 10
1660.226496811596
 20
633.96370528304362
 11
1617.1244525842267
 21
621.03309764190067
  0
LINE
  8
_0-0_0
  6
CONTINUOUS
 62
    7
 10
1660.226496811596
 20
633.96370528304362
 11
1642.9858022522817
 21
691.43322139080055
  0
LINE
  8
_0-0_0
  6
CONTINUOUS
 62
    7
 10
1617.1243124277771
 20
621.03305559498415
 11
1599.8835863335323
 21
678.50267682015499
  0
LINE
  8
_0-0_0
  6
CONTINUOUS
 62
    7
 10
1642.9858022522817
 20
691.43322139080055
 11
1617.1244525842267
 21
621.03309764190067
  0
LINE
  8
_0-0_0
  6
CONTINUOUS
 62
    7
 10
1599.8835863335323
 20
678.5026768201551
 11
1660.226496811596
 21
633.96370528304385
  0
LINE
  8
_0-0_0
  6
CONTINUOUS
 62
    7
 10
1598.1733281566449
 20
678.22116579602323
 11
1555.071143772826
 21
665.29051610796375
  0
LINE
  8
_0-0_0
  6
CONTINUOUS
 62
    7
 10
1615.4140542508903
 20
620.75154457085227
 11
1572.312010023521
 21
607.82093692970943
  0
LINE
  8
_0-0_0
  6
CONTINUOUS
 62
    7
 10
1615.4140542508903
 20
620.75154457085227
 11
1598.173359691576
 21
678.22106067860932
  0
LINE
  8
_0-0_0
  6
CONTINUOUS
 62
    7
 10
1572.3118698670714
 20
607.8208948827928
 11
1555.071143772826
 21
665.29051610796375
  0
LINE
  8
_0-0_0
  6
CONTINUOUS
 62
    7
 10
1598.173359691576
 20
678.22106067860932
 11
1572.312010023521
 21
607.82093692970943
  0
LINE
  8
_0-0_0
  6
CONTINUOUS
 62
    7
 10
1555.071143772826
 20
665.29051610796375
 11
1615.4140542508903
 21
620.75154457085239
  0
LINE
  8
_0-0_0
  6
CONTINUOUS
 62
    7
 10
1593.1595986107434
 20
700.91585640307835
 11
1587.9873949281787
 21
718.15665906487084
  0
LINE
  8
_0-0_0
  6
CONTINUOUS
 62
    3
 10
1587.9873949281787
 20
718.15665906487084
 11
1599.7686921918294
 21
678.88577369492396
  0
LINE
  8
_0-0_0
  6
CONTINUOUS
 62
    7
 10
1453.3989602429078
 20
674.85912828265919
 11
1453.9082931932562
 21
673.16146437787961
  0
LINE
  8
_0-0_0
  6
CONTINUOUS
 62
    7
 10
1454.2123465756786
 20
672.14799796743057
 11
1454.6381804170364
 21
670.72859644936602
  0
LINE
  8
_0-0_0
  6
CONTINUOUS
 62
    7
 10
1454.7095130861499
 20
673.01385516334835
 11
1453.9082931932562
 21
673.16146437787961
  0
LINE
  8
_0-0_0
  6
CONTINUOUS
 62
    7
 10
1453.9082931932562
 20
673.16146437787961
 11
1451.7996103210883
 21
669.48904191630209
  0
LINE
  8
_0-0_0
  6
CONTINUOUS
 62
    7
 10
1451.7996103210883
 20
669.48904191630209
 11
1452.6008348673031
 21
669.34139587865195
  0
LINE
  8
_0-0_0
  6
CONTINUOUS
 62
    7
 10
1452.6008348673031
 20
669.34139587865195
 11
1454.7095130861499
 21
673.01385516334835
  0
LINE
  8
_0-0_0
  6
CONTINUOUS
 62
    7
 10
1454.7095130861499
 20
673.01385516334835
 11
1451.7996103210883
 21
669.48904191630209
  0
LINE
  8
_0-0_0
  6
CONTINUOUS
 62
    7
 10
1453.4244271230914
 20
674.7742432462644
 11
1451.56688960778
 21
672.78776704073357
  0
LINE
  8
_0-0_0
  6
CONTINUOUS
 62
    7
 10
1451.148043362055
 20
674.1838465595763
 11
1451.56688960778
 21
672.78776704073357
  0
LINE
  8
_0-0_0
  6
CONTINUOUS
 62
    7
 10
1451.8709476435231
 20
671.77426380716565
 11
1452.2967768315598
 21
670.35489911221987
  0
LINE
  8
_0-0_0
  6
CONTINUOUS
 62
    7
 10
1451.56688960778
 20
672.78776704073357
 11
1451.0697230973083
 21
671.92190984481567
  0
LINE
  8
_0-0_0
  6
CONTINUOUS
 62
    7
 10
1451.0697230973083
 20
671.92190984481567
 11
1451.8709476435231
 21
671.77426380716565
  0
LINE
  8
_0-0_0
  6
CONTINUOUS
 62
    7
 10
1451.8709476435231
 20
671.77426380716565
 11
1453.4244271230914
 21
674.7742432462644
  0
LINE
  8
_0-0_0
  6
CONTINUOUS
 62
    7
 10
1453.4244271230914
 20
674.7742432462644
 11
1451.0697230973083
 21
671.92190984481567
  0
LINE
  8
_0-0_0
  6
CONTINUOUS
 62
    7
 10
1446.9692738131139
 20
678.28185392707633
 11
1447.1704237860681
 21
677.61138822847977
  0
LINE
  8
_0-0_0
  6
CONTINUOUS
 62
    7
 10
1454.8330126198105
 20
679.91019656161836
 11
1454.6318626468562
 21
680.58066226021492
  0
LINE
  8
_0-0_0
  6
CONTINUOUS
 62
    7
 10
1454.6318626468562
 20
680.58066226021492
 11
1446.9692738131139
 21
678.28185392707633
  0
LINE
  8
_0-0_0
  6
CONTINUOUS
 62
    7
 10
1456.3437090141279
 20
679.55112117462215
 11
1456.5879313224218
 21
678.73697763611403
  0
LINE
  8
_0-0_0
  6
CONTINUOUS
 62
    7
 10
1456.3437090141279
 20
679.55112117462215
 11
1446.1068845583561
 21
676.48001932610714
  0
LINE
  8
_0-0_0
  6
CONTINUOUS
 62
    7
 10
1446.1068845583561
 20
676.48001932610714
 11
1446.3511068666501
 21
675.66587578759891
  0
LINE
  8
_0-0_0
  6
CONTINUOUS
 62
    7
 10
1446.3511068666501
 20
675.66587578759891
 11
1456.5879313224218
 21
678.73697763611403
  0
LINE
  8
_0-0_0
  6
CONTINUOUS
 62
    7
 10
1447.1704237860681
 20
677.61138822847977
 11
1454.8330126198105
 21
679.91019656161836
  0
LINE
  8
_0-0_0
  6
CONTINUOUS
 62
    7
 10
1455.5159656521623
 20
667.09694704470417
 11
1455.7948149706151
 21
662.78426044304206
  0
LINE
  8
_0-0_0
  6
CONTINUOUS
 62
    7
 10
1455.6721256765643
 20
667.28222528730043
 11
1454.1385168809873
 21
665.6881242189545
  0
LINE
  8
_0-0_0
  6
CONTINUOUS
 62
    7
 10
1454.9422384527843
 20
669.71509321581379
 11
1455.3680722941422
 21
668.29569169774936
  0
LINE
  8
_0-0_0
  6
CONTINUOUS
 62
    7
 10
1455.7948149706151
 20
662.78426044304206
 11
1453.386783021796
 21
667.00607252267196
  0
LINE
  8
_0-0_0
  6
CONTINUOUS
 62
    7
 10
1452.6009085135454
 20
669.34140518531035
 11
1453.0266687086655
 21
667.92199436060309
  0
LINE
  8
_0-0_0
  6
CONTINUOUS
 62
    7
 10
1455.4394049632558
 20
670.58095041173158
 11
1454.638180417041
 21
670.72859644938171
  0
LINE
  8
_0-0_0
  6
CONTINUOUS
 62
    7
 10
1454.638180417041
 20
670.72859644938171
 11
1452.5295021981942
 21
667.05613716468542
  0
LINE
  8
_0-0_0
  6
CONTINUOUS
 62
    7
 10
1452.5295021981942
 20
667.05613716468542
 11
1453.3307220910876
 21
666.90852795015439
  0
LINE
  8
_0-0_0
  6
CONTINUOUS
 62
    7
 10
1453.3307220910876
 20
666.90852795015439
 11
1455.4394049632558
 21
670.58095041173158
  0
LINE
  8
_0-0_0
  6
CONTINUOUS
 62
    7
 10
1455.4394049632558
 20
670.58095041173158
 11
1452.5295021981942
 21
667.05613716468542
  0
LINE
  8
_0-0_0
  6
CONTINUOUS
 62
    7
 10
1456.1692875337146
 20
668.14811930633709
 11
1454.1385168809873
 21
665.6881242189545
  0
LINE
  8
_0-0_0
  6
CONTINUOUS
 62
    7
 10
1456.1692875337146
 20
668.14811930633709
 11
1455.3680722941422
 21
668.29569169774936
  0
LINE
  8
_0-0_0
  6
CONTINUOUS
 62
    7
 10
1455.3680722941422
 20
668.29569169774936
 11
1454.1385168809873
 21
665.6881242189545
  0
LINE
  8
_0-0_0
  6
CONTINUOUS
 62
    7
 10
1455.6721256765643
 20
667.28222528730043
 11
1456.1692875337146
 21
668.14811930633709
  0
LINE
  8
_0-0_0
  6
dotted_22
 62
    7
 10
1450.8005314068664
 20
679.43125344032444
 11
1455.7797969674011
 21
662.83405031048051
  0
LINE
  8
_0-0_0
  6
CONTINUOUS
 62
    7
 10
1425.2773198541354
 20
665.92719603926867
 11
1399.4802870116268
 21
710.60896760701633
  0
LINE
  8
_0-0_0
  6
CONTINUOUS
 62
    7
 10
1399.4802870116268
 20
710.60896760701633
 11
1279.6178290837215
 21
710.60896760701633
  0
LINE
  8
_0-0_0
  6
CONTINUOUS
 62
    3
 10
1512.1131132033224
 20
1122.8983530262412
 11
1503.4926695420868
 21
1151.6331394546046
  0
LINE
  8
_0-0_0
  6
CONTINUOUS
 62
    3
 10
1417.2882996433198
 20
1125.7718438498291
 11
1503.4926695420868
 21
1151.6331394546039
  0
LINE
  8
_0-0_0
  6
CONTINUOUS
 62
    3
 10
1425.9087433045584
 20
1097.0370574214667
 11
1417.2882996433225
 21
1125.77184384983
  0
LINE
  8
_0-0_0
  6
CONTINUOUS
 62
    3
 10
1503.4926695420868
 20
1151.6331394546046
 11
1425.9087433045584
 21
1097.0370574214667
  0
LINE
  8
_0-0_0
  6
CONTINUOUS
 62
    3
 10
1417.2882996433198
 20
1125.7718438498291
 11
1512.1131132033224
 21
1122.8983530262412
  0
LINE
  8
_0-0_0
  6
CONTINUOUS
 62
    3
 10
1548.7592077463771
 20
1122.8983530262412
 11
1557.3796514076125
 21
1151.6331394546046
  0
LINE
  8
_0-0_0
  6
CONTINUOUS
 62
    3
 10
1643.5840213063796
 20
1125.7718438498291
 11
1557.3796514076125
 21
1151.6331394546039
  0
LINE
  8
_0-0_0
  6
CONTINUOUS
 62
    3
 10
1634.9635776451407
 20
1097.0370574214667
 11
1643.5840213063768
 21
1125.77184384983
  0
LINE
  8
_0-0_0
  6
CONTINUOUS
 62
    3
 10
1557.3796514076125
 20
1151.6331394546046
 11
1634.9635776451407
 21
1097.0370574214667
  0
LINE
  8
_0-0_0
  6
CONTINUOUS
 62
    3
 10
1643.5840213063796
 20
1125.7718438498291
 11
1548.7592077463771
 21
1122.8983530262412
  0
LINE
  8
_0-0_0
  6
CONTINUOUS
 62
    7
 10
1420.2056118530732
 20
1114.0681235884754
 11
1451.6739675280808
 21
1123.3191811818751
  0
LINE
  8
_0-0_0
  6
CONTINUOUS
 62
    7
 10
1419.5992017678172
 20
1116.1308321982656
 11
1451.0675718337766
 21
1125.3818940225663
  0
LINE
  8
_0-0_0
  6
CONTINUOUS
 62
    7
 10
1451.0675718337766
 20
1125.3818940225663
 11
1455.4961958420101
 21
1125.5633291318591
  0
LINE
  8
_0-0_0
  6
CONTINUOUS
 62
    2
 10
1421.8768255278005
 20
1108.3837064017912
 11
1417.9279837490644
 21
1121.8152606153581
  0
LINE
  8
_0-0_0
  6
CONTINUOUS
 62
    2
 10
1420.3417907605269
 20
1107.9324101989628
 11
1416.3929489819184
 21
1121.3639644125674
  0
LINE
  8
_0-0_0
  6
CONTINUOUS
 62
    7
 10
1417.2925847178008
 20
1116.8858955410301
 11
1417.676344146304
 21
1116.9987156391405
  0
LINE
  8
_0-0_0
  6
CONTINUOUS
 62
    7
 10
1418.6746353843814
 20
1112.1848386431525
 11
1419.0583955960706
 21
1112.2976589715147
  0
LINE
  8
_0-0_0
  6
CONTINUOUS
 62
    7
 10
1418.0539104578986
 20
1112.5235127600836
 11
1416.953910324401
 21
1116.2651701078316
  0
LINE
  8
_0-0_0
  6
CONTINUOUS
 62
    2
 10
1420.3417907606527
 20
1107.9324101985294
 11
1421.8768255277582
 21
1108.3837064018794
  0
LINE
  8
_0-0_0
  6
CONTINUOUS
 62
    2
 10
1416.3929489815066
 20
1121.3639644139621
 11
1417.9279837489639
 21
1121.8152606156436
  0
LINE
  8
_0-0_0
  6
CONTINUOUS
 62
    7
 10
1451.6739675280808
 20
1123.3191811818751
 11
1455.4961958420101
 21
1125.5633291318591
  0
LINE
  8
_0-0_0
  6
CONTINUOUS
 62
    7
 10
1640.6667090037811
 20
1114.0681235884754
 11
1609.1983533287735
 21
1123.3191811818751
  0
LINE
  8
_0-0_0
  6
CONTINUOUS
 62
    7
 10
1641.273119089037
 20
1116.1308321982656
 11
1609.8047490230772
 21
1125.3818940225663
  0
LINE
  8
_0-0_0
  6
CONTINUOUS
 62
    7
 10
1609.8047490230772
 20
1125.3818940225663
 11
1605.3761250148439
 21
1125.5633291318591
  0
LINE
  8
_0-0_0
  6
CONTINUOUS
 62
    2
 10
1638.9954953290537
 20
1108.3837064017912
 11
1642.9443371077894
 21
1121.8152606153581
  0
LINE
  8
_0-0_0
  6
CONTINUOUS
 62
    2
 10
1640.5305300963269
 20
1107.9324101989628
 11
1644.4793718749356
 21
1121.3639644125674
  0
LINE
  8
_0-0_0
  6
CONTINUOUS
 62
    7
 10
1643.5797361390535
 20
1116.8858955410301
 11
1643.1959767105498
 21
1116.9987156391405
  0
LINE
  8
_0-0_0
  6
CONTINUOUS
 62
    7
 10
1642.1976854724728
 20
1112.1848386431525
 11
1641.8139252607837
 21
1112.2976589715147
  0
LINE
  8
_0-0_0
  6
CONTINUOUS
 62
    7
 10
1642.8184103989552
 20
1112.5235127600836
 11
1643.9184105324528
 21
1116.2651701078316
  0
LINE
  8
_0-0_0
  6
CONTINUOUS
 62
    2
 10
1640.5305300962013
 20
1107.9324101985294
 11
1638.995495329096
 21
1108.3837064018794
  0
LINE
  8
_0-0_0
  6
CONTINUOUS
 62
    2
 10
1644.4793718753476
 20
1121.3639644139621
 11
1642.9443371078903
 21
1121.8152606156436
  0
LINE
  8
_0-0_0
  6
CONTINUOUS
 62
    7
 10
1609.1983533287735
 20
1123.3191811818751
 11
1605.3761250148439
 21
1125.5633291318591
  0
ARC
  8
_0-1_0_04____
  6
CONTINUOUS
 62
    4
 10
1072.8024704391892
 20
484.74717258762672
 40
9.4232909743850293
 50
90.216690063476577
 51
156.3421325683594
  0
ARC
  8
_0-1_0_04____
  6
CONTINUOUS
 62
    4
 10
1066.5177711280617
 20
486.95352234711515
 40
1.0601556542757395
 50
199.62838745117193
 51
206.18559265136724
  0
ARC
  8
_0-1_0_04____
  6
CONTINUOUS
 62
    4
 10
1066.5364404626794
 20
486.95839381862328
 40
1.0793712171348366
 50
193.10209655761722
 51
199.53930664062503
  0
ARC
  8
_0-1_0_04____
  6
CONTINUOUS
 62
    4
 10
1066.5195155788113
 20
486.95356410258523
 40
1.0617821603207975
 50
109.58866882324219
 51
193.04545593261719
  0
ARC
  8
_0-1_0_04____
  6
CONTINUOUS
 62
    4
 10
1066.5195526947846
 20
486.95368472949883
 40
1.0616900228165291
 50
26.132049560546879
 51
109.59364318847658
  0
ARC
  8
_0-1_0_04____
  6
CONTINUOUS
 62
    4
 10
1066.5114614125844
 20
486.9495370194719
 40
1.0707935127052102
 50
19.66021728515625
 51
26.140243530273438
  0
ARC
  8
_0-1_0_04____
  6
CONTINUOUS
 62
    4
 10
1066.5098654257285
 20
486.95118404079125
 40
1.0717377227705878
 50
13.072555541992191
 51
19.541824340820313
  0
ARC
  8
_0-1_0_04____
  6
CONTINUOUS
 62
    4
 10
1072.8026931350296
 20
484.74736744648703
 40
9.4230955355876205
 50
24.090606689453125
 51
90.21795654296875
  0
ARC
  8
_0-0_0
  6
CONTINUOUS
 62
    7
 10
1396.9630857628047
 20
1090.685561528408
 40
0.4499999999997371
 50
196.69925837863806
 51
16.699258378782229
  0
ARC
  8
_0-0_0
  6
CONTINUOUS
 62
    7
 10
1396.9630857628067
 20
1090.6855615284096
 40
1.0500000000020584
 50
196.69925837875212
 51
16.69925837871887
  0
ARC
  8
_0-0_0
  6
CONTINUOUS
 62
    2
 10
760.41983266998136
 20
728.32366434276332
 40
1.0500000000076852
 50
0
 51
180
  0
ARC
  8
_0-0_0
  6
CONTINUOUS
 62
    2
 10
760.41983266996681
 20
728.32366434276298
 40
0.4500000000002727
 50
0
 51
180
  0
ARC
  8
_0-0_0
  6
CONTINUOUS
 62
    2
 10
859.36983266997402
 20
704.37366434275896
 40
0.4500000000000454
 50
270
 51
90
  0
ARC
  8
_0-0_0
  6
CONTINUOUS
 62
    2
 10
859.36983266997402
 20
704.37366434276089
 40
1.0499999999976808
 50
270
 51
90
  0
ARC
  8
_0-0_0
  6
CONTINUOUS
 62
    7
 10
787.49161259310767
 20
705.92364643453561
 40
0.5
 50
359.9994270422128
 51
89.999473814264078
  0
ARC
  8
_0-0_0
  6
CONTINUOUS
 62
    7
 10
783.59161259305984
 20
705.92368225086545
 40
0.5
 50
89.999473814218462
 51
179.99942704221283
  0
ARC
  8
_0-0_0
  6
CONTINUOUS
 62
    7
 10
755.31411431755919
 20
673.67008173210615
 40
0.5
 50
89.99942704221283
 51
179.99947381426406
  0
ARC
  8
_0-0_0
  6
CONTINUOUS
 62
    7
 10
755.31407850122946
 20
669.77008173205854
 40
0.5
 50
179.99947381421848
 51
269.9994270422128
  0
ARC
  8
_0-0_0
  6
CONTINUOUS
 62
    2
 10
1610.2490511281296
 20
719.25100368146491
 40
1.5
 50
106.69923247477635
 51
196.69923247279615
  0
ARC
  8
_0-0_0
  6
CONTINUOUS
 62
    2
 10
1612.1647038159733
 20
719.82569905895525
 40
1.5
 50
16.699232472900391
 51
106.69923246966955
  0
ARC
  8
_0-0_0
  6
CONTINUOUS
 62
    2
 10
1565.4366401023544
 20
706.03873785185942
 40
1.5
 50
106.69923247477635
 51
196.69923247279615
  0
ARC
  8
_0-0_0
  6
CONTINUOUS
 62
    2
 10
1567.3522927901988
 20
706.61343322934999
 40
1.5
 50
16.699232472900391
 51
106.69923246966955
  0
ARC
  8
_0-0_0
  6
CONTINUOUS
 62
    2
 10
840.22328261621692
 20
1092.965791051744
 40
1.5
 50
106.69923247477635
 51
196.69923247279615
  0
ARC
  8
_0-0_0
  6
CONTINUOUS
 62
    2
 10
842.13893530406153
 20
1093.5404864292345
 40
1.5
 50
16.699232472900391
 51
106.69923246966955
  0
ARC
  8
_0-0_0
  6
CONTINUOUS
 62
    7
 10
1663.9092351868942
 20
1090.685561528408
 40
0.4499999999997371
 50
163.30074162121778
 51
343.30074162136196
  0
ARC
  8
_0-0_0
  6
CONTINUOUS
 62
    7
 10
1663.9092351868928
 20
1090.6855615284096
 40
1.0500000000020584
 50
163.30074162128119
 51
343.30074162124788
  0
ARC
  8
_0-0_0
  6
CONTINUOUS
 62
    2
 10
842.10645987453995
 20
725.48266434276297
 40
2.1507999999999989
 50
274.88089200000002
 51
312.09789899999993
  0
ARC
  8
_0-0_0
  6
CONTINUOUS
 62
    2
 10
815.76745987453967
 20
723.22366434276296
 40
2.1497000000000002
 50
133.39787000000001
 51
275.57905599999987
  0
ARC
  8
_0-0_0
  6
CONTINUOUS
 62
    2
 10
824.59645987453962
 20
735.22366434276296
 40
0.4994
 50
313.37732399999999
 51
0.0000000000000127
  0
ARC
  8
_0-0_0
  6
CONTINUOUS
 62
    2
 10
763.59645987453962
 20
735.72366434276307
 40
0.5001999999999998
 50
151.84665299999989
 51
270
  0
ARC
  8
_0-0_0
  6
CONTINUOUS
 62
    2
 10
768.83545987453965
 20
735.98166434276311
 40
0.758
 50
270
 51
94.08507800000001
  0
ARC
  8
_0-0_0
  6
CONTINUOUS
 62
    2
 10
769.2464598745396
 20
730.21866434276296
 40
6.5355999999999987
 50
94.079994999999997
 51
126.87691100000002
  0
ARC
  8
_0-0_0
  6
CONTINUOUS
 62
    2
 10
769.2464598745396
 20
730.21866434276296
 40
7.5361000000000011
 50
94.078575000000015
 51
126.88191000000002
  0
ARC
  8
_0-0_0
  6
CONTINUOUS
 62
    2
 10
768.83545987453965
 20
735.98166434276311
 40
1.758
 50
270
 51
94.077257999999972
  0
ARC
  8
_0-0_0
  6
CONTINUOUS
 62
    2
 10
763.59645987453962
 20
735.72366434276307
 40
1.5004999999999988
 50
151.932005
 51
270
  0
ARC
  8
_0-0_0
  6
CONTINUOUS
 62
    2
 10
768.09645987453973
 20
745.22366434276296
 40
1
 50
90
 51
151.89482100000004
  0
ARC
  8
_0-0_0
  6
CONTINUOUS
 62
    2
 10
822.09645987453973
 20
745.22366434276296
 40
1
 50
26.616299999999999
 51
90
  0
ARC
  8
_0-0_0
  6
CONTINUOUS
 62
    2
 10
825.09645987453973
 20
739.22366434276296
 40
1
 50
0
 51
26.616299999999999
  0
ARC
  8
_0-0_0
  6
CONTINUOUS
 62
    2
 10
824.59645987453962
 20
735.22366434276296
 40
1.4996
 50
313.43286499999999
 51
0.0000000000000063
  0
ARC
  8
_0-0_0
  6
CONTINUOUS
 62
    2
 10
815.76745987453967
 20
723.22366434276296
 40
1.150199999999999
 50
133.3795179999999
 51
275.83847899999995
  0
ARC
  8
_0-0_0
  6
CONTINUOUS
 62
    2
 10
842.10645987453995
 20
725.48266434276297
 40
1.150199999999999
 50
274.88774799999987
 51
312.07866799999999
  0
ARC
  8
_0-0_0
  6
CONTINUOUS
 62
    2
 10
913.2184598745398
 20
747.00766434276318
 40
18.782800000000002
 50
235.58401199999989
 51
304.42013500000007
  0
ARC
  8
_0-0_0
  6
CONTINUOUS
 62
    2
 10
913.2184598745398
 20
747.00766434276318
 40
17.785099999999989
 50
235.58439200000007
 51
304.41998899999987
  0
ARC
  8
_0-0_0
  6
CONTINUOUS
 62
    2
 10
951.2184598745398
 20
728.83566434276304
 40
17.388999999999999
 50
56.754983999999993
 51
123.24501600000001
  0
ARC
  8
_0-0_0
  6
CONTINUOUS
 62
    2
 10
951.2184598745398
 20
728.83566434276304
 40
16.389399999999991
 50
56.754978999999992
 51
123.24502099999989
  0
ARC
  8
_0-0_0
  6
CONTINUOUS
 62
    2
 10
989.2184598745398
 20
747.00766434276318
 40
18.782800000000002
 50
235.58401199999989
 51
304.42013500000007
  0
ARC
  8
_0-0_0
  6
CONTINUOUS
 62
    2
 10
989.2184598745398
 20
747.00766434276318
 40
17.785099999999989
 50
235.58439200000007
 51
304.41998899999987
  0
ARC
  8
_0-0_0
  6
CONTINUOUS
 62
    2
 10
1027.2184598745398
 20
728.83566434276304
 40
17.388999999999999
 50
56.754983999999993
 51
123.24501600000001
  0
ARC
  8
_0-0_0
  6
CONTINUOUS
 62
    2
 10
1027.2184598745398
 20
728.83566434276304
 40
16.389399999999991
 50
56.754978999999992
 51
123.24502099999989
  0
ARC
  8
_0-0_0
  6
CONTINUOUS
 62
    2
 10
1065.2184598745398
 20
747.00766434276318
 40
18.782800000000002
 50
235.58401199999989
 51
304.42013500000007
  0
ARC
  8
_0-0_0
  6
CONTINUOUS
 62
    2
 10
1065.2184598745398
 20
747.00766434276318
 40
17.785099999999989
 50
235.58439200000007
 51
304.41998899999987
  0
ARC
  8
_0-0_0
  6
CONTINUOUS
 62
    2
 10
875.21845987453969
 20
728.83566434276304
 40
17.388999999999999
 50
56.754983999999993
 51
123.24501600000001
  0
ARC
  8
_0-0_0
  6
CONTINUOUS
 62
    2
 10
875.21845987453969
 20
728.83566434276304
 40
16.389399999999991
 50
56.754978999999992
 51
123.24502099999989
  0
ARC
  8
_0-0_0
  6
CONTINUOUS
 62
    2
 10
1103.2184598745398
 20
728.83566434276304
 40
16.389099999999999
 50
98.501896999999985
 51
123.24200600000002
  0
ARC
  8
_0-0_0
  6
CONTINUOUS
 62
    2
 10
1103.2184598745398
 20
728.83566434276304
 40
17.3886
 50
98.009878000000043
 51
123.24217499999995
  0
ARC
  8
_0-0_0
  6
CONTINUOUS
 62
    3
 10
821.47645987453973
 20
722.29266434276292
 40
12.19619999999999
 50
150.5470489999999
 51
177.598703
  0
ARC
  8
_0-0_0
  6
CONTINUOUS
 62
    3
 10
810.43945987453958
 20
719.86166434276288
 40
1.1999999999999991
 50
90.23873100000003
 51
163.13703200000006
  0
ARC
  8
_0-0_0
  6
CONTINUOUS
 62
    2
 10
773.36409640920124
 20
573.10779772945023
 40
0.4499999999999316
 50
180
 51
0
  0
ARC
  8
_0-0_0
  6
CONTINUOUS
 62
    2
 10
773.36409640920647
 20
573.10779772945023
 40
1.0499999999947249
 50
180
 51
0
  0
ARC
  8
_0-0_0
  6
CONTINUOUS
 62
    2
 10
914.42383043279551
 20
730.43685657153856
 40
0.4500000000001723
 50
233.49284177238147
 51
53.492841772299556
  0
ARC
  8
_0-0_0
  6
CONTINUOUS
 62
    2
 10
914.42383043280847
 20
730.43685657155515
 40
1.0500000000009653
 50
233.49284177232005
 51
53.492841772346353
  0
ARC
  8
_0-0_0
  6
CONTINUOUS
 62
    2
 10
874.25226234074091
 20
759.76095906435921
 40
1.5
 50
90.000000001875961
 51
179.99999999989578
  0
ARC
  8
_0-0_0
  6
CONTINUOUS
 62
    2
 10
876.25226234007982
 20
759.76095906412274
 40
1.5
 50
0
 51
89.999999996769162
  0
ARC
  8
_0-0_0
  6
CONTINUOUS
 62
    3
 10
811.29145987453978
 20
708.22366434276296
 40
2
 50
180
 51
270
  0
ARC
  8
_0-0_0
  6
CONTINUOUS
 62
    7
 10
1447.984230474367
 20
675.79039728064947
 40
2.0000000257749817
 50
114.05955035584313
 51
159.82961566346012
  0
ARC
  8
_0-0_0
  6
CONTINUOUS
 62
    7
 10
1455.1559576876589
 20
677.94199044446668
 40
2.0000000257749817
 50
53.569422792366481
 51
99.339503358772802
  0
ARC
  8
_0-0_0
  6
CONTINUOUS
 62
    7
 10
1457.2302914828979
 20
676.00853710254955
 40
4.0000000515499634
 50
152.31405169861645
 51
196.69951922791338
  0
ARC
  8
_0-0_0
  6
CONTINUOUS
 62
    7
 10
1447.3167857683027
 20
673.03444704632807
 40
4.0000000515499634
 50
16.699519227913338
 51
61.085002015999358
  0
ARC
  8
_0-0_0
  6
CONTINUOUS
 62
    7
 10
1417.433609984342
 20
1116.4061957659651
 40
0.5
 50
106.38262512541569
 51
196.38267189746688
  0
ARC
  8
_0-0_0
  6
CONTINUOUS
 62
    7
 10
1418.5336101178395
 20
1112.6645384182166
 40
0.5
 50
196.38267189742132
 51
286.38262512541564
  0
ARC
  8
_0-0_0
  6
CONTINUOUS
 62
    7
 10
1643.4387108725123
 20
1116.4061957659651
 40
0.5
 50
343.61732810253312
 51
73.617374874584343
  0
ARC
  8
_0-0_0
  6
CONTINUOUS
 62
    7
 10
1642.3387107390147
 20
1112.6645384182166
 40
0.5
 50
253.61737487458441
 51
343.61732810257871
  0
TEXT
  8
_0-3_0_10___F
 62
    7
 10
1468.8839474239865
 20
480.04209662772519
 40
9
 41
1
 50
0
  1
S=F
  0
TEXT
  8
_0-3_0_10___F
 62
    7
 10
662.44393529118724
 20
458.40431576806145
 40
6
 41
1
 50
0
  1
＊シーリングは変成シリコンを使用して下さい。
  0
TEXT
  8
_0-3_0_10___F
 62
    7
 10
1406.1092562288852
 20
490.64349499264279
 40
9
 41
1
 50
0
  1
担当
  0
TEXT
  8
_0-3_0_10___F
 62
    7
 10
1446.0617065429687
 20
468.14349499264279
 40
9
 41
1
 50
0
  1
年月日
  0
TEXT
  8
_0-3_0_10___F
 62
    7
 10
1501.1575482342696
 20
486.57931446384742
 40
6
 41
1
 50
0
  1
工事名称
  0
TEXT
  8
_0-3_0_10___F
 62
    7
 10
1501.1575482342696
 20
464.07931562372158
 40
6
 41
1
 50
0
  1
図面名称
  0
TEXT
  8
_0-3_0_10___F
 62
    7
 10
662.44393529118724
 20
480.95431678359574
 40
6
 41
1
 50
0
  1
＊板金役物留め付けビスはSUSキャップパッキン付を使用して下さい。
  0
TEXT
  8
_0-3_0_10___F
 62
    7
 10
662.44393529118724
 20
469.70431678359574
 40
6
 41
1
 50
0
  1
＊各板金役物ジョイント部分にはSUS耐水リベットを使用して下さい。
  0
TEXT
  8
_0-3_0_10___F
 62
    7
 10
646.14557601310116
 20
492.20431446384742
 40
6
 41
1
 50
0
  1
備考
  0
TEXT
  8
_0-3_0_10___F
 62
    7
 10
1445.1092364336994
 20
490.64349499264279
 40
9
 41
1
 50
0
  1
縮尺
  0
TEXT
  8
_0-3_0_10___F
 62
    7
 10
1206.4770961452175
 20
478.19761601009884
 40
12
 41
1
 50
0
  1
アキレス株式会社
  0
TEXT
  8
_0-3_0_10___F
 62
    7
 10
1328.10922158731
 20
490.64349499264279
 40
9
 41
1
 50
0
  1
承認
  0
TEXT
  8
_0-3_0_10___F
 62
    7
 10
1367.1092017921242
 20
490.64349499264279
 40
9
 41
1
 50
0
  1
製図
  0
TEXT
  8
_0-3_0_10___F
 62
    7
 10
1811.9527538402663
 20
490.11429544397305
 40
9
 41
1
 50
0
  1
№
  0
TEXT
  8
_0-0_0
 62
    7
 10
1373.9579541272797
 20
468.47794747123282
 40
9
 41
1
 50
0
  1
太田
  0
TEXT
  8
_0-3_0_10___F
 62
    7
 10
1234.3042775746937
 20
465.75017583692397
 40
9
 41
1
 50
0
  1
断熱資材販売部
  0
TEXT
  8
_0-3_0_10___F
 62
    7
 10
1590.0576534786737
 20
484.88599560711839
 40
9
 41
1
 50
0
  1
アキレストリトン　施工マニュアル
  0
TEXT
  8
_0-3_0_10___F
 62
    7
 10
1608.5469013935806
 20
462.44273549157219
 40
9
 41
1
 50
0
  1
縦繋ぎ納まり
  0
TEXT
  8
_0-0_0
 62
    7
 10
1309.3568618005079
 20
1195.5670362882565
 40
9
 41
1
 50
0
  1
【棟納まり図】
  0
TEXT
  8
_0-0_0
 62
    7
 10
979.32426535618424
 20
665.6902505469609
 40
6
 41
1
 50
0
  1
母屋
  0
TEXT
  8
_0-0_0
 62
    7
 10
1269.9554048430912
 20
833.31550233862504
 40
12
 41
1
 50
0
  1
【縦つなぎ納まり図】
  0
TEXT
  8
_0-0_0
 62
    7
 10
1006.2839005754076
 20
721.26503545043977
 40
6
 41
1
 50
0
  1
トリトン
  0
TEXT
  8
_0-0_0
 62
    7
 10
1272.274219217551
 20
715.60896760701621
 40
9
 41
1
 50
0
  1
タッミングビス（パッキン付き）
  0
LINE
  8
_0-0_0
  6
CONTINUOUS
 62
    7
 10
1424.5710791535146
 20
1093.1871237324949
 11
1404.4935693053931
 21
1073.1096138843734
  0
LINE
  8
_0-0_0
  6
CONTINUOUS
 62
    7
 10
1422.9392931479285
 20
1098.6264055387746
 11
1402.8617832998057
 21
1078.5488956906515
  0
LINE
  8
_0-0_0
  6
CONTINUOUS
 62
    7
 10
1421.3075071423425
 20
1104.0656873450539
 11
1401.2299972942183
 21
1083.9881774969294
  0
LINE
  8
_0-0_0
  6
CONTINUOUS
 62
    7
 10
1412.0702693011308
 20
1101.8995173157077
 11
1399.5982112886309
 21
1089.4274593032078
  0
LINE
  8
_0-0_0
  6
CONTINUOUS
 62
    7
 10
1401.9687399723055
 20
1098.8690557987479
 11
1397.9664252830435
 21
1094.8667411094862
  0
LINE
  8
_0-0_0
  6
CONTINUOUS
 62
    7
 10
1426.2028651591006
 20
1087.7478419262154
 11
1414.2413638300727
 21
1075.7863405971875
  0
LINE
  8
_0-0_0
  6
CONTINUOUS
 62
    7
 10
1427.8346511646866
 20
1082.3085601199361
 11
1424.3428860467884
 21
1078.8167950020379
  0
LINE
  8
_0-0_0
  6
CONTINUOUS
 62
    7
 10
1405.5036079951228
 20
1099.9295171568228
 11
1426.091689504023
 21
1079.3414356479223
  0
LINE
  8
_0-0_0
  6
CONTINUOUS
 62
    7
 10
1410.9428898013994
 20
1101.5613031624116
 11
1426.8228005770006
 21
1085.6813923868103
  0
LINE
  8
_0-0_0
  6
CONTINUOUS
 62
    7
 10
1416.3821716076759
 20
1103.1930891680004
 11
1423.7923390600502
 21
1095.7829217156263
  0
LINE
  8
_0-0_0
  6
CONTINUOUS
 62
    7
 10
1400.0643261888458
 20
1098.2977311512341
 11
1420.6524056356557
 21
1077.7096517044242
  0
LINE
  8
_0-0_0
  6
CONTINUOUS
 62
    7
 10
1398.6273590718279
 20
1092.6636304563865
 11
1415.2131217672882
 21
1076.0778677609262
  0
LINE
  8
_0-0_0
  6
CONTINUOUS
 62
    7
 10
1401.6578205887827
 20
1082.5621011275662
 11
1409.7738378989209
 21
1074.4460838174282
  0
LINE
  8
_0-0_0
  6
CONTINUOUS
 62
    7
 10
1431.1711211467136
 20
654.72388265529673
 11
1428.0781048028191
 21
651.63086631140231
  0
LINE
  8
_0-0_0
  6
CONTINUOUS
 62
    7
 10
1430.8447665045192
 20
655.81174157547559
 11
1426.8292584689561
 21
651.79623353991246
  0
LINE
  8
_0-0_0
  6
CONTINUOUS
 62
    7
 10
1430.5184118623249
 20
656.89960049565434
 11
1426.5029038267617
 21
652.88409246009121
  0
LINE
  8
_0-0_0
  6
CONTINUOUS
 62
    7
 10
1430.1920572201307
 20
657.9874594158332
 11
1426.1765491845674
 21
653.97195138026996
  0
LINE
  8
_0-0_0
  6
CONTINUOUS
 62
    7
 10
1429.8657025779364
 20
659.07531833601206
 11
1425.8501945423732
 21
655.05981030044882
  0
LINE
  8
_0-0_0
  6
CONTINUOUS
 62
    7
 10
1429.5393479357422
 20
660.16317725619092
 11
1425.5238399001787
 21
656.14766922062745
  0
LINE
  8
_0-0_0
  6
CONTINUOUS
 62
    7
 10
1429.2129932935479
 20
661.25103617636978
 11
1425.1974852579845
 21
657.23552814080631
  0
LINE
  8
_0-0_0
  6
CONTINUOUS
 62
    7
 10
1428.8866386513537
 20
662.33889509654864
 11
1424.87113061579
 21
658.32338706098494
  0
LINE
  8
_0-0_0
  6
CONTINUOUS
 62
    7
 10
1428.5602840091594
 20
663.4267540167275
 11
1424.544775973596
 21
659.4112459811638
  0
LINE
  8
_0-0_0
  6
CONTINUOUS
 62
    7
 10
1428.233929366965
 20
664.51461293690613
 11
1424.2184213314015
 21
660.49910490134255
  0
LINE
  8
_0-0_0
  6
CONTINUOUS
 62
    7
 10
1427.9075747247709
 20
665.60247185708499
 11
1423.8920666892072
 21
661.58696382152129
  0
LINE
  8
_0-0_0
  6
CONTINUOUS
 62
    7
 10
1427.5812200825767
 20
666.69033077726385
 11
1423.5657120470128
 21
662.67482274170015
  0
LINE
  8
_0-0_0
  6
CONTINUOUS
 62
    7
 10
1427.2548654403822
 20
667.77818969744271
 11
1423.2393574048185
 21
663.76268166187879
  0
LINE
  8
_0-0_0
  6
CONTINUOUS
 62
    7
 10
1426.9285107981882
 20
668.86604861762157
 11
1422.9130027626243
 21
664.85054058205765
  0
LINE
  8
_0-0_0
  6
CONTINUOUS
 62
    7
 10
1426.2983026828592
 20
669.65005406466594
 11
1422.5866481204298
 21
665.93839950223628
  0
LINE
  8
_0-0_0
  6
CONTINUOUS
 62
    7
 10
1424.2779981081749
 20
669.04396305235446
 11
1422.2602934782356
 21
667.02625842241514
  0
LINE
  8
_0-0_0
  6
CONTINUOUS
 62
    7
 10
1422.2576935334905
 20
668.4378720400432
 11
1421.9339388360411
 21
668.11411734259389
  0
LINE
  8
_0-0_0
  6
CONTINUOUS
 62
    7
 10
1431.4974757889076
 20
653.63602373511787
 11
1431.0963194058834
 21
653.23486735209349
  0
LINE
  8
_0-0_0
  6
CONTINUOUS
 62
    7
 10
1422.5934852425464
 20
665.91560888331674
 11
1430.0508116002427
 21
658.45828252562058
  0
LINE
  8
_0-0_0
  6
CONTINUOUS
 62
    7
 10
1421.9874017647803
 20
667.93590592345595
 11
1429.4447281224766
 21
660.47857956575967
  0
LINE
  8
_0-0_0
  6
CONTINUOUS
 62
    7
 10
1422.7515056604839
 20
668.5860155901255
 11
1428.8386446447107
 21
662.49887660589866
  0
LINE
  8
_0-0_0
  6
CONTINUOUS
 62
    7
 10
1423.8393623960762
 20
668.91237241690624
 11
1428.2325611669446
 21
664.51917364603764
  0
LINE
  8
_0-0_0
  6
CONTINUOUS
 62
    7
 10
1424.9272191316686
 20
669.2387292436872
 11
1427.6264776891787
 21
666.53947068617686
  0
LINE
  8
_0-0_0
  6
CONTINUOUS
 62
    7
 10
1426.0150758672607
 20
669.56508607046783
 11
1427.0203942114126
 21
668.55976772631584
  0
LINE
  8
_0-0_0
  6
CONTINUOUS
 62
    7
 10
1423.1995687203125
 20
663.89531184317741
 11
1430.6568950780086
 21
656.43798548548148
  0
LINE
  8
_0-0_0
  6
CONTINUOUS
 62
    7
 10
1423.8056521980789
 20
661.8750148030382
 11
1431.2629785557747
 21
654.41768844534249
  0
LINE
  8
_0-0_0
  6
CONTINUOUS
 62
    7
 10
1424.411735675845
 20
659.85471776289887
 11
1431.0540498398416
 21
653.21240359890248
  0
LINE
  8
_0-0_0
  6
CONTINUOUS
 62
    7
 10
1425.0178191536111
 20
657.83442072275966
 11
1430.1305965968988
 21
652.72164327947212
  0
LINE
  8
_0-0_0
  6
CONTINUOUS
 62
    7
 10
1425.6239026313774
 20
655.81412368262045
 11
1429.2071433539561
 21
652.23088296004153
  0
LINE
  8
_0-0_0
  6
CONTINUOUS
 62
    7
 10
1426.2299861091435
 20
653.79382664248101
 11
1428.2836901110136
 21
651.74012264061093
  0
LINE
  8
_0-0_0
  6
CONTINUOUS
 62
    7
 10
1426.8360695869098
 20
651.7735296023418
 11
1427.3602368680711
 21
651.24936232118046
  0
LINE
  8
_0-0_0
  6
CONTINUOUS
 62
    3
 10
1427.0437724320891
 20
651.08118034891731
 11
1431.5461110261597
 21
653.47390477053455
  0
LINE
  8
_0-0_0
  6
CONTINUOUS
 62
    3
 10
1431.5461110261597
 20
653.47390477053455
 11
1426.6606962518977
 21
669.7587720707852
  0
LINE
  8
_0-0_0
  6
CONTINUOUS
 62
    3
 10
1426.6606962518977
 20
669.7587720707852
 11
1421.8715645908417
 21
668.32203342607136
  0
LINE
  8
_0-0_0
  6
CONTINUOUS
 62
    3
 10
1421.8715645908417
 20
668.32203342607136
 11
1427.0437724320891
 21
651.08118034891731
  0
LINE
  8
_0-0_0
  6
CONTINUOUS
 62
    7
 10
1486.7663606225362
 20
673.38976641612976
 11
1482.7508525869707
 21
669.37425838056424
  0
LINE
  8
_0-0_0
  6
CONTINUOUS
 62
    7
 10
1486.440005980342
 20
674.47762533630851
 11
1482.4244979447762
 21
670.4621173007431
  0
LINE
  8
_0-0_0
  6
CONTINUOUS
 62
    7
 10
1486.1136513381477
 20
675.56548425648737
 11
1482.098143302582
 21
671.54997622092174
  0
LINE
  8
_0-0_0
  6
CONTINUOUS
 62
    7
 10
1485.7872966959533
 20
676.65334317666611
 11
1481.7717886603878
 21
672.63783514110037
  0
LINE
  8
_0-0_0
  6
CONTINUOUS
 62
    7
 10
1485.460942053759
 20
677.74120209684497
 11
1481.4454340181935
 21
673.72569406127923
  0
LINE
  8
_0-0_0
  6
CONTINUOUS
 62
    7
 10
1485.1345874115646
 20
678.82906101702361
 11
1481.119079375999
 21
674.81355298145797
  0
LINE
  8
_0-0_0
  6
CONTINUOUS
 62
    7
 10
1484.8082327693703
 20
679.91691993720247
 11
1480.7927247338048
 21
675.90141190163683
  0
LINE
  8
_0-0_0
  6
CONTINUOUS
 62
    7
 10
1484.4818781271761
 20
681.0047788573811
 11
1480.4663700916103
 21
676.98927082181558
  0
LINE
  8
_0-0_0
  6
CONTINUOUS
 62
    7
 10
1484.1555234849816
 20
682.09263777755996
 11
1480.1400154494161
 21
678.07712974199444
  0
LINE
  8
_0-0_0
  6
CONTINUOUS
 62
    7
 10
1483.8291688427873
 20
683.1804966977387
 11
1479.8136608072218
 21
679.16498866217307
  0
LINE
  8
_0-0_0
  6
CONTINUOUS
 62
    7
 10
1483.5028142005931
 20
684.26835561791756
 11
1479.4873061650273
 21
680.25284758235171
  0
LINE
  8
_0-0_0
  6
CONTINUOUS
 62
    7
 10
1483.1764595583988
 20
685.35621453809631
 11
1479.1609515228331
 21
681.34070650253057
  0
LINE
  8
_0-0_0
  6
CONTINUOUS
 62
    7
 10
1482.8501049162044
 20
686.44407345827517
 11
1478.8345968806386
 21
682.42856542270943
  0
LINE
  8
_0-0_0
  6
CONTINUOUS
 62
    7
 10
1481.0748162744781
 20
686.08299837892196
 11
1478.5082422384444
 21
683.51642434288817
  0
LINE
  8
_0-0_0
  6
CONTINUOUS
 62
    7
 10
1479.0545116997937
 20
685.4769073666107
 11
1478.1818875962501
 21
684.60428326306692
  0
LINE
  8
_0-0_0
  6
CONTINUOUS
 62
    7
 10
1487.0927152647305
 20
672.3019074959509
 11
1483.7513318172662
 21
668.9605240484866
  0
LINE
  8
_0-0_0
  6
CONTINUOUS
 62
    7
 10
1487.419069906925
 20
671.21404857577227
 11
1485.313502049275
 21
669.10848071812211
  0
LINE
  8
_0-0_0
  6
CONTINUOUS
 62
    7
 10
1487.7454245491192
 20
670.12618965559341
 11
1486.8756722812836
 21
669.25643738775784
  0
LINE
  8
_0-0_0
  6
CONTINUOUS
 62
    7
 10
1478.9320710380673
 20
682.10364854414865
 11
1486.3893973957677
 21
674.64632218644829
  0
LINE
  8
_0-0_0
  6
CONTINUOUS
 62
    7
 10
1478.325987560301
 20
684.12394558428798
 11
1485.7833139180016
 21
676.6666192265875
  0
LINE
  8
_0-0_0
  6
CONTINUOUS
 62
    7
 10
1478.541225199079
 20
685.32292150788317
 11
1485.1772304402355
 21
678.68691626672671
  0
LINE
  8
_0-0_0
  6
CONTINUOUS
 62
    7
 10
1479.6290819346714
 20
685.6492783346639
 11
1484.5711469624694
 21
680.70721330686615
  0
LINE
  8
_0-0_0
  6
CONTINUOUS
 62
    7
 10
1480.7169386702635
 20
685.97563516144476
 11
1483.9650634847033
 21
682.72751034700536
  0
LINE
  8
_0-0_0
  6
CONTINUOUS
 62
    7
 10
1481.8047954058559
 20
686.30199198822561
 11
1483.3589800069369
 21
684.74780738714458
  0
LINE
  8
_0-0_0
  6
CONTINUOUS
 62
    7
 10
1479.5381545158334
 20
680.08335150400944
 11
1486.995480873534
 21
672.62602514630908
  0
LINE
  8
_0-0_0
  6
CONTINUOUS
 62
    7
 10
1480.1442379935997
 20
678.06305446387023
 11
1487.6015643513001
 21
670.60572810616964
  0
LINE
  8
_0-0_0
  6
CONTINUOUS
 62
    7
 10
1480.7503214713659
 20
676.04275742373079
 11
1487.4794558064855
 21
669.31362308861117
  0
LINE
  8
_0-0_0
  6
CONTINUOUS
 62
    7
 10
1481.3564049491322
 20
674.02246038359158
 11
1486.187597098972
 21
669.19126823375166
  0
LINE
  8
_0-0_0
  6
CONTINUOUS
 62
    7
 10
1481.9624884268983
 20
672.00216334345214
 11
1484.8957383914585
 21
669.06891337889192
  0
LINE
  8
_0-0_0
  6
CONTINUOUS
 62
    7
 10
1482.5685719046644
 20
669.98186630331293
 11
1483.6038796839453
 21
668.9465585240323
  0
LINE
  8
_0-0_0
  6
CONTINUOUS
 62
    3
 10
1482.8991841563397
 20
668.8798152195991
 11
1487.9751090526217
 21
669.36056752660511
  0
LINE
  8
_0-0_0
  6
CONTINUOUS
 62
    3
 10
1487.9751090526217
 20
669.36056752660511
 11
1482.8029003999441
 21
686.60142330855217
  0
LINE
  8
_0-0_0
  6
CONTINUOUS
 62
    3
 10
1482.8029003999441
 20
686.60142330855217
 11
1478.013768738886
 21
685.16468466383776
  0
LINE
  8
_0-0_0
  6
CONTINUOUS
 62
    3
 10
1478.013768738886
 20
685.16468466383776
 11
1482.8991841563397
 21
668.8798152195991
  0
LINE
  8
_0-0_0
  6
CONTINUOUS
 62
    7
 10
1655.3687129545763
 20
1099.9295171568224
 11
1634.7806314456757
 21
1079.3414356479223
  0
LINE
  8
_0-0_0
  6
CONTINUOUS
 62
    7
 10
1649.9294311482997
 20
1101.5613031624111
 11
1634.0495203726987
 21
1085.6813923868103
  0
LINE
  8
_0-0_0
  6
CONTINUOUS
 62
    7
 10
1644.4901493420232
 20
1103.1930891679999
 11
1637.0799818896487
 21
1095.7829217156263
  0
LINE
  8
_0-0_0
  6
CONTINUOUS
 62
    7
 10
1660.8079947608528
 20
1098.2977311512336
 11
1640.2199153140436
 21
1077.7096517044242
  0
LINE
  8
_0-0_0
  6
CONTINUOUS
 62
    7
 10
1662.2449618778712
 20
1092.6636304563865
 11
1645.6591991824109
 21
1076.0778677609262
  0
LINE
  8
_0-0_0
  6
CONTINUOUS
 62
    7
 10
1659.2145003609164
 20
1082.5621011275662
 11
1651.0984830507782
 21
1074.4460838174282
  0
LINE
  8
_0-0_0
  6
CONTINUOUS
 62
    7
 10
1636.3012417961847
 20
1093.1871237324949
 11
1656.378751644306
 21
1073.1096138843734
  0
LINE
  8
_0-0_0
  6
CONTINUOUS
 62
    7
 10
1637.9330278017708
 20
1098.6264055387746
 11
1658.0105376498934
 21
1078.5488956906515
  0
LINE
  8
_0-0_0
  6
CONTINUOUS
 62
    7
 10
1639.5648138073568
 20
1104.0656873450539
 11
1659.6423236554808
 21
1083.9881774969299
  0
LINE
  8
_0-0_0
  6
CONTINUOUS
 62
    7
 10
1648.8020516485685
 20
1101.8995173157075
 11
1661.2741096610682
 21
1089.4274593032078
  0
LINE
  8
_0-0_0
  6
CONTINUOUS
 62
    7
 10
1658.9035809773941
 20
1098.8690557987472
 11
1662.9058956666556
 21
1094.8667411094862
  0
LINE
  8
_0-0_0
  6
CONTINUOUS
 62
    7
 10
1634.6694557905987
 20
1087.7478419262156
 11
1646.6309571196273
 21
1075.7863405971871
  0
LINE
  8
_0-0_0
  6
CONTINUOUS
 62
    7
 10
1633.0376697850127
 20
1082.3085601199361
 11
1636.5294349029114
 21
1078.8167950020375
  0
LINE
  8
_0-0_0
  6
CONTINUOUS
 62
    3
 10
1077.254030254157
 20
533.2914838541808
 11
1077.2540302537727
 21
532.31289637475186
  0
LINE
  8
_0-0_0
  6
CONTINUOUS
 62
    2
 10
1075.2301276078151
 20
531.926344281963
 11
1076.9647430374519
 21
531.65160818796426
  0
INSERT
  2
-000-ELLIPSE0
  8
_0-0_0
 10
1076.2663419147589
 20
532.46933084062414
 41
1
 42
0.8540806854634398
 50
310.49999999999949
  0
INSERT
  2
-001-BV_ATTRIBUTE1
  8
_0-0_0
 10
767.19680668504805
 20
1087.0824094150578
 41
1
 42
1
 50
0
  0
INSERT
  2
-002-BV_ATTRIBUTE2
  8
_0-0_0
 10
1650.5695032738092
 20
1096.5247657895943
 41
1
 42
1
 50
0
  0
INSERT
  2
-003-BV_ATTRIBUTE3
  8
_0-0_0
 10
1537.3518441348747
 20
1162.0617950867063
 41
1
 42
1
 50
0
  0
INSERT
  2
-004-BV_ATTRIBUTE4
  8
_0-0_0
 10
1676.2132057497258
 20
1076.1889896617831
 41
1
 42
1
 50
0
  0
INSERT
  2
-005-BV_ATTRIBUTE5
  8
_0-0_0
 10
794.41409690944283
 20
671.71946773218838
 41
1
 42
1
 50
0
  0
INSERT
  2
-006-BV_ATTRIBUTE6
  8
_0-0_0
 10
1566.7752233856461
 20
706.40954144340856
 41
1
 42
1
 50
0
  0
INSERT
  2
-007-BV_ATTRIBUTE7
  8
_0-0_0
 10
1696.0286016630109
 20
742.49402168673771
 41
1
 42
1
 50
0
  0
INSERT
  2
-008-BV_ATTRIBUTE8
  8
_0-0_0
 10
989.8564967552652
 20
1118.9184845852033
 41
1
 42
1
 50
0
  0
INSERT
  2
-009-BV_ATTRIBUTE9
  8
_0-0_0
 10
843.41327731769161
 20
1091.4073765655203
 41
1
 42
1
 50
0
  0
INSERT
  2
-010-BV_ATTRIBUTE10
  8
_0-0_0
 10
880.27149087647422
 20
1009.2281301408916
 41
1
 42
1
 50
0
  0
INSERT
  2
-011-BV_ATTRIBUTE11
  8
_0-0_0
 10
1586.3656452999685
 20
1034.0992409113833
 41
1
 42
1
 50
0
  0
INSERT
  2
-012-BV_ATTRIBUTE12
  8
_0-0_0
 10
757.31409640921117
 20
731.28391205011542
 41
1
 42
1
 50
0
  0
INSERT
  2
-013-BV_ATTRIBUTE13
  8
_0-0_0
 10
875.84474104961441
 20
759.72326058266572
 41
1
 42
1
 50
0
  0
INSERT
  2
-014-BV_ATTRIBUTE14
  8
_0-0_0
 10
1603.2060799431561
 20
625.19474042137358
 41
1
 42
1
 50
0
  0
INSERT
  2
-015-BV_ATTRIBUTE15
  8
_0-0_0
 10
1381.4871719155817
 20
622.86682210149331
 41
1
 42
1
 50
0
  0
INSERT
  2
-016-BV_ATTRIBUTE16
  8
_0-0_0
 10
1450.2354623204048
 20
679.26172398419067
 41
1
 42
1
 50
0
  0
INSERT
  2
-017-BV_ATTRIBUTE17
  8
_0-0_0
 10
1417.2565177887482
 20
1113.5858383364903
 41
1
 42
1
 50
0
  0
TEXT
  8
_0-0_0
 62
    7
 10
1269.9554048430912
 20
1251.9154883054364
 40
12
 41
1
 50
0
  1
【棟納まり図】
  0
TEXT
  8
_0-0_0
 62
    7
 10
665.35551535847958
 20
833.31550233862504
 40
12
 41
1
 50
0
  1
【ケラバ納まり図】
  0
TEXT
  8
_0-0_0
 62
    7
 10
665.35551535847958
 20
1251.9154883054366
 40
12
 41
1
 50
0
  1
【軒先納まり図】
  0
ENDSEC
  0
EOF
